Song name
# A B C D E F G H I J K L M N O P Q R S T U V W X Y Z

Deathwish - Condemned tab

-------------------------------------------------------------------------------
                             CONDEMNED - Deathwish
-------------------------------------------------------------------------------

By: David bostijn     David.Bostijn@pi.be

e|---------------------------------------------------------------------------|
B|---------------------------------------------------------------------------|
G|---------------------------------------------------------------------------|
D|--------------------7-7--6-6-6-6-------------------7-7---------------------|
A|---9-9-9-9-9-9-9-9--5-5--4-4-4-4--9-9-9-9-9-9-9-9--5-5--7-7-7-7------------|
E|---7-7-7-7-7-7-7-7----------------7-7-7-7-7-7-7-7-------5-5-5-5------------|

e|---------------------------------------------------------------------------|
B|---------------------------------------------------------------------------|
G|---------------------------------------------------------------------------|
D|------------5-5-5-5--7-7-7-7--5--7-7-7-7-----------------------------------|
A|---7-7-7-7--3-3-3-3--5-5-5-5--3--5-5-5-5-----------------------------------|
E|---5-5-5-5-----------------------------------------------------------------|

e|---------------------------------------------------------------------------|
B|---------------------------------------------------------------------------|
G|---------------------------------------------------------------------------|
D|--------5--7-7-7-7---------------------------------------------------------|
A|---7-7--3--5-5-5-5---------------------------------------------------------|
E|---5-5---------------------------------------------------------------------|

  Condemned for life!! Condemned for life!!... 

===============================================================================
Tap to rate this tab
# A B C D E F G H I J K L M N O P Q R S T U V W X Y Z