Song name
# A B C D E F G H I J K L M N O P Q R S T U V W X Y Z

Deathwish - Soal tab

----------------------------------------------------0------|
-------1-0--------------0--------------0------------0------|
-2---2-----2----0-----0---0----------2---2--------5--------|
---2---------2------0-------0------2-------2----7----------|
-0----------------0--------------0------------0------------|
----------------3--------------0---------------------------|
for the first vers youll do a double picking ballad then go
into a more fluid tone then a distortion part

-----------------------------------------------------------|
-----------------------------------------------------------|
----------------------------p--p-------h-p-----------------|
-----10----9----7----9----10-7-9-7----7-9-7----------------|
-000----00---00---00---00----------10-------10-------------|
-----------------------------------------------------------|

-----------------------------------------------------------|
-----------------------------------------------------------|
----------9----------7----------5--------------------------|
---------10----------9----------7--------------------------|
-000-000-----000-000----000-000----------------------------|
-----------------------------------------------------------|
Tap to rate this tab
 
# A B C D E F G H I J K L M N O P Q R S T U V W X Y Z