Song name
# A B C D E F G H I J K L M N O P Q R S T U V W X Y Z

Debauchery - Death Metal Maniac tab

----------------------------------------------------------------------------
		    Death Metal Maniac - Debauchery
----------------------------------------------------------------------------
Tabbed by:Thor_666
Email:oidaedding@web.de

Tuning:

4x
e|---------------------------------------------------------------------------|
B|---------------------------------------------------------------------------|
G|-------3-------------------------------------------------------------------|
D|-5-----3-3-----------5-----------------------------------------------------|
A|-5-----1-3-----------5-----------------------------------------------------|
E|-3-------1-----3--6--3-----------------------------------------------------|

8x
e|---------------------------------------------------------------------------|
B|---------------------------------------------------------------------------|
G|---------3-3-3-----------3-3-3---------------------------------------------|
D|-5-5-5---3-3-3---3-3-3---3-3-3---5-5-5-------------------------------------|
A|-5-5-5---1-1-1---3-3-3---1-1-1---5-5-5-------------------------------------|
E|-3-3-3-----------1-1-1-----------1-1-1-------------------------------------|



| /  slide up
| \  slide down
| h  hammer-on
| p  pull-off
| ~  vibrato
| +  harmonic
| x  Mute note
===============================================================================
Tap to rate this tab
# A B C D E F G H I J K L M N O P Q R S T U V W X Y Z