Debauchery - Warfare tab

-------------------------------------------------------------------------------
			     WARFARE - Debauchery
-------------------------------------------------------------------------------
Tabbed by: David_Bastin
Email: David_loves_bass@hotmail.com 

Tuning: Drop D

e|-------------------------------------|-------------------------------------|
B|-------------------------------------|-------------------------------------|
G|-------------------------------------|-------------------------------------|
D|-------------------------------------|-------------------------------------|
A|--5--3-0-----00----00----00----00----|--5--3-0-----00----00----00----00----|
D|--5--3-0-----00----00----00----00----|--5--3-0-----00----00----00----00----|

e|-------------------------------------|-------------------------------------|
B|-------------------------------------|-------------------------------------|
G|-------------------------------------|-------------------------------------|
D|-------------------------------------|-------------------------------------|
A|--5--3-0-----00----00----00----00----|--5--3-0-----00----00----00----00----|
D|--5--3-0-----00----00----00----00----|--5--3-0-----00----00----00----00----|

e|-------------------------------------|-------------------------------------|
B|-------------------------------------|-------------------------------------|
G|-------------------------------------|-------------------------------------|
D|-------------------------------------|-------------------------------------|
A|--5--3-0-----00----00----00----00----|--5--3-0-----00----00----00----00----|
D|--5--3-0-----00----00----00----00----|--5--3-0-----00----00----00----00----|

e|-------------------------------------|-------------------------------------|
B|-------------------------------------|-------------------------------------|
G|-------------------------------------|-------------------------------------|
D|-------------------------------------|-------------------------------------|
A|--5--3-0-----00----00----00----00----|--5--3-0-----00----00----00----00----|
D|--5--3-0-----00----00----00----00----|--5--3-0-----00----00----00----00----|

e|-------------------------------------|-------------------------------------|
B|-------------------------------------|-------------------------------------|
G|-------------------------------------|-------------------------------------|
D|-------------------------------------|-------------------------------------|
A|--5--3-0-----00----00----00----00----|--5--3-0-----00----00----00----00----|
D|--5--3-0-----00----00----00----00----|--5--3-0-----00----00----00----00----|

e|-------------------------------------|-------------------------------------|
B|-------------------------------------|-------------------------------------|
G|-------------------------------------|-------------------------------------|
D|-------------------------------------|-------------------------------------|
A|--5--3-0-----00----00----00----00----|--5--3-0-----00----00----00----00----|
D|--5--3-0-----00----00----00----00----|--5--3-0-----00----00----00----00----|

e|-------------------------------------|-------------------------------------|
B|-------------------------------------|-------------------------------------|
G|-------------------------------------|-------------------------------------|
D|-------------------------------------|-------------------------------------|
A|--2/3-2/3-2/3-2/3-7\6--00------------|--2/3-2/3-2/3-2/3-7\6--00------------|
D|--2/3-2/3-2/3-2/3-7\6--00------------|--2/3-2/3-2/3-2/3-7\6--00------------|

e|-------------------------------------|-------------------------------------|
B|-------------------------------------|-------------------------------------|
G|-------------------------------------|-------------------------------------|
D|-------------------------------------|-------------------------------------|
A|--2/3-2/3-2/3-2/3-7\6--00------------|--2/3-2/3-2/3-2/3-7\6--00------------|
D|--2/3-2/3-2/3-2/3-7\6--00------------|--2/3-2/3-2/3-2/3-7\6--00------------|

e|-------------------------------------|-------------------------------------|
B|-------------------------------------|-------------------------------------|
G|-------------------------------------|-------------------------------------|
D|-------------------------------------|-------------------------------------|
A|--5--3-0-----00----00----00----00----|--5--3-0-----00----00----00----00----|
D|--5--3-0-----00----00----00----00----|--5--3-0-----00----00----00----00----|

e|-------------------------------------|-------------------------------------|
B|-------------------------------------|-------------------------------------|
G|-------------------------------------|-------------------------------------|
D|-------------------------------------|-------------------------------------|
A|--5--3-0-----00----00----00----00----|--5--3-0-----00----00----00----00----|
D|--5--3-0-----00----00----00----00----|--5--3-0-----00----00----00----00----|

e|-------------------------------------|-------------------------------------|
B|-------------------------------------|-------------------------------------|
G|-------------------------------------|-------------------------------------|
D|-------------------------------------|-------------------------------------|
A|--5--3-0-----00----00----00----00----|--5--3-0-----00----00----00----00----|
D|--5--3-0-----00----00----00----00----|--5--3-0-----00----00----00----00----|

e|-------------------------------------|-------------------------------------|
B|-------------------------------------|-------------------------------------|
G|-------------------------------------|-------------------------------------|
D|-------------------------------------|-------------------------------------|
A|--5--3-0-----00----00----00----00----|--5--3-0-----00----00----00----00----|
D|--5--3-0-----00----00----00----00----|--5--3-0-----00----00----00----00----|

e|-------------------------------------|-------------------------------------|
B|-------------------------------------|-------------------------------------|
G|-------------------------------------|-------------------------------------|
D|-------------------------------------|-------------------------------------|
A|--2/3-2/3-2/3-2/3-7\6--00------------|--2/3-2/3-2/3-2/3-7\6--00------------|
D|--2/3-2/3-2/3-2/3-7\6--00------------|--2/3-2/3-2/3-2/3-7\6--00------------|

e|-------------------------------------|-------------------------------------|
B|-------------------------------------|-------------------------------------|
G|-------------------------------------|-------------------------------------|
D|-------------------------------------|-------------------------------------|
A|--2/3-2/3-2/3-2/3-7\6--00------------|--2/3-2/3-2/3-2/3-7\6--00------------|
D|--2/3-2/3-2/3-2/3-7\6--00------------|--2/3-2/3-2/3-2/3-7\6--00------------|

e|-------------------------------------|-------------------------------------|
B|-------------------------------------|-------------------------------------|
G|-------------------------------------|-------------------------------------|
D|-------------------------------------|-------------------------------------|
A|--5--3-0---3-0-----------------------|--5--3-0---3-0-----------------------|
D|--5--3-0---3-0-----------------------|--5--3-0---3-0-----------------------|

e|-------------------------------------|-------------------------------------|
B|-------------------------------------|-------------------------------------|
G|-------------------------------------|-------------------------------------|
D|-------------------------------------|-------------------------------------|
A|--5--3-0---3-0-----------------------|--5--3-0---3-0-----------------------|
D|--5--3-0---3-0-----------------------|--5--3-0---3-0-----------------------|

e|-------------------------------------|-------------------------------------|
B|-------------------------------------|-------------------------------------|
G|-------------------------------------|-------------------------------------|
D|-------------------------------------|-------------------------------------|
A|--0-0-0-0-0-0-0-0-3/4----------------|--0-0-0-0-0-0-0-0-3/4----------------|
D|--0-0-0-0-0-0-0-0-3/4----------------|--0-0-0-0-0-0-0-0-3/4----------------|

e|-------------------------------------|-------------------------------------|
B|-------------------------------------|-------------------------------------|
G|-------------------------------------|-------------------------------------|
D|-------------------------------------|-------------------------------------|
A|--0-0-0-0-0-0-0-0-3/4----------------|--0-0-0-0-0-0-0-0-3/4----------------|
D|--0-0-0-0-0-0-0-0-3/4----------------|--0-0-0-0-0-0-0-0-3/4----------------|

e|-------------------------------------|-------------------------------------|
B|-------------------------------------|-------------------------------------|
G|-------------------------------------|-------------------------------------|
D|-------------------------------------|-------------------------------------|
A|--333333333333-6/7-------------------|--333333333333-6/7-------------------|
D|--333333333333-6/7-------------------|--333333333333-6/7-------------------|

e|-------------------------------------|-------------------------------------|
B|-------------------------------------|-------------------------------------|
G|-------------------------------------|-------------------------------------|
D|-------------------------------------|-------------------------------------|
A|--333333333333-6/7-------------------|--333333333333-6/7-------------------|
D|--333333333333-6/7-------------------|--333333333333-6/7-------------------|

e|-------------------------------------|-------------------------------------|
B|-------------------------------------|-------------------------------------|
G|-------------------------------------|-------------------------------------|
D|-------------------------------------|-------------------------------------|
A|--0-0-0-0-0-0-0-0-3/4----------------|--0-0-0-0-0-0-0-0-3/4----------------|
D|--0-0-0-0-0-0-0-0-3/4----------------|--0-0-0-0-0-0-0-0-3/4----------------|

e|-------------------------------------|-------------------------------------|
B|-------------------------------------|-------------------------------------|
G|-------------------------------------|-------------------------------------|
D|-------------------------------------|-------------------------------------|
A|--0-0-0-0-0-0-0-0-3/4----------------|--0-0-0-0-0-0-0-0-3/4----------------|
D|--0-0-0-0-0-0-0-0-3/4----------------|--0-0-0-0-0-0-0-0-3/4----------------|

e|-------------------------------------|-------------------------------------|
B|-------------------------------------|-------------------------------------|
G|-------------------------------------|-------------------------------------|
D|-------------------------------------|-------------------------------------|
A|--333333333333-6/7-------------------|--333333333333-6/7-------------------|
D|--333333333333-6/7-------------------|--333333333333-6/7-------------------|

e|-------------------------------------|-------------------------------------|
B|-------------------------------------|-------------------------------------|
G|-------------------------------------|-------------------------------------|
D|-------------------------------------|-------------------------------------|
A|--333333333333-6/7-------------------|--333333333333-6/7-------------------|
D|--333333333333-6/7-------------------|--333333333333-6/7-------------------|

e|-------------------------------------|-------------------------------------|
B|-------------------------------------|-------------------------------------|
G|-------------------------------------|-------------------------------------|
D|-------------------------------------|-------------------------------------|
A|--0-0-0-0-0-0-0-0-3/4----------------|--0-0-0-0-0-0-0-0-3/4----------------|
D|--0-0-0-0-0-0-0-0-3/4----------------|--0-0-0-0-0-0-0-0-3/4----------------|

e|-------------------------------------|-------------------------------------|
B|-------------------------------------|-------------------------------------|
G|-------------------------------------|-------------------------------------|
D|-------------------------------------|-------------------------------------|
A|--0-0-0-0-0-0-0-0-3/4----------------|--0-0-0-0-0-0-0-0-3/4----------------|
D|--0-0-0-0-0-0-0-0-3/4----------------|--0-0-0-0-0-0-0-0-3/4----------------|

e|-------------------------------------|-------------------------------------|
B|-------------------------------------|-------------------------------------|
G|-------------------------------------|-------------------------------------|
D|-------------------------------------|-------------------------------------|
A|--333333333333-6/7-------------------|--333333333333-6/7-------------------|
D|--333333333333-6/7-------------------|--333333333333-6/7-------------------|

e|-------------------------------------|-------------------------------------|
B|-------------------------------------|-------------------------------------|
G|-------------------------------------|-------------------------------------|
D|-------------------------------------|-------------------------------------|
A|--333333333333-6/7-------------------|--333333333333-6/7-------------------|
D|--333333333333-6/7-------------------|--333333333333-6/7-------------------|

e|-------------------------------------|-------------------------------------|
B|-------------------------------------|-------------------------------------|
G|-------------------------------------|-------------------------------------|
D|-------------------------------------|-------------------------------------|
A|--0-0--0-5--3-0--12\0----------------|--0-0--0-5--3-0--12\0----------------|
D|--0-0--0-5--3-0--12\0----------------|--0-0--0-5--3-0--12\0----------------|

e|-------------------------------------|-------------------------------------|
B|-------------------------------------|-------------------------------------|
G|-------------------------------------|-------------------------------------|
D|-------------------------------------|-------------------------------------|
A|--0-0--0-5--3-0--12\0----------------|--0-0--0-5--3-0--12\0----------------|
D|--0-0--0-5--3-0--12\0----------------|--0-0--0-5--3-0--12\0----------------|

e|-------------------------------------|-------------------------------------|
B|-------------------------------------|-------------------------------------|
G|-------------------------------------|-------------------------------------|
D|-------------------------------------|-------------------------------------|
A|--2/3-2/3-2/3-2/3-7\6--00------------|--2/3-2/3-2/3-2/3-7\6--00------------|
D|--2/3-2/3-2/3-2/3-7\6--00------------|--2/3-2/3-2/3-2/3-7\6--00------------|

e|-------------------------------------|-------------------------------------|
B|-------------------------------------|-------------------------------------|
G|-------------------------------------|-------------------------------------|
D|-------------------------------------|-------------------------------------|
A|--2/3-2/3-2/3-2/3-7\6--00------------|--2/3-2/3-2/3-2/3-7\6--00------------|
D|--2/3-2/3-2/3-2/3-7\6--00------------|--2/3-2/3-2/3-2/3-7\6--00------------|

e|-------------------------------------|-------------------------------------|
B|-------------------------------------|-------------------------------------|
G|-------------------------------------|-------------------------------------|
D|-------------------------------------|-------------------------------------|
A|--5--3-0-----00----00----00----00----|--5--3-0-----00----00----00----00----|
D|--5--3-0-----00----00----00----00----|--5--3-0-----00----00----00----00----|

e|-------------------------------------|-------------------------------------|
B|-------------------------------------|-------------------------------------|
G|-------------------------------------|-------------------------------------|
D|-------------------------------------|-------------------------------------|
A|--5--3-0-----00----00----00----00----|--5--3-0-----00----00----00----00----|
D|--5--3-0-----00----00----00----00----|--5--3-0-----00----00----00----00----|



************************************

| /   slide up
| \   slide down
| h   hammer-on
| p   pull-off
| ~   vibrato
| +   harmonic
| x   Mute note
| b   Bend
| pb  Pre-bend
| br  Bend release
| pbr Pre-bend release
| brb Bend release bend

************************************
Tap to rate this tab
 
# A B C D E F G H I J K L M N O P Q R S T U V W X Y Z