Guitaretab - guitar tabs
Song name
# A B C D E F G H I J K L M N O P Q R S T U V W X Y Z

Debauchery - Blood For The Bloodgod tab

Band: Debauchery
Song: Blood For The Bloodgod
Album: Rage Of The Bloodbeast
http://www.debauchery.de

Tuning: D

Intro:
d|---------------|
A|---------------|
F|---------------|
C|--2---2-2-2-2--|
G|--2---2-2-2-2--|
D|--0---0-0-0-0--| 8x


d|--------------------------|
A|--------------------------|
F|--------------------------|
C|--2---2-2-2-2-------------|
G|--2---2-2-2-2---22222222--|
D|--0---0-0-0-0---00000000--| 4x
pm:               ********


d|-----------------------|     |--------------|
A|-----------------------|     |--------------|
F|-----------------------|     |--------------|
C|--2-2-2-2--5--2-2-2-2--|     |--2-2-2-2--5--|
G|--2-2-2-2--5--2-2-2-2--|     |--2-2-2-2--5--|
D|--0-0-0-0--3--0-0-0-0--| 3x  |--0-0-0-0--3--|


d|--------------------------|
A|--------------------------|
F|--------------------------|
C|--------2--------5-5------|
G|--2222--2--2222--5-5--22--|
D|--0000--0--0000--3-3--00--| 8X
pm: ****     ****       **


d|-------------------------|
A|-------------------------|
F|-------------------------|
C|--------5/7-7/8-8\7\5\4--|
G|--2222--5/7-7/8-8\7\5\4--|
D|--0000--3/5-5/6-6\5\3\2--| 4x
pm: ****

[ Tab from: http://www.guitaretab.com/d/debauchery/86004.html ]
d|---------------------|
A|---------------------|
F|---------------------|
C|--2222-888577777777--|
G|--2222-888577777777--|
D|--0000-666355555555--| 8x


d|--------------------------|
A|--------------------------|
F|--------------------------|
C|--------2--------5-5------|
G|--2222--2--2222--5-5--22--|
D|--0000--0--0000--3-3--00--| 8X
pm: ****     ****       **


d|-------------------------|
A|-------------------------|
F|-------------------------|
C|--------5/7-7/8-8\7\5\4--|
G|--2222--5/7-7/8-8\7\5\4--|
D|--0000--3/5-5/6-6\5\3\2--| 4x
pm: ****


d|---------------------|
A|---------------------|
F|---------------------|
C|--2222-888577777777--|
G|--2222-888577777777--|
D|--0000-666355555555--| 8x


d|----------------------------------|
A|----------------------------------|
F|----------------------------------|
C|--22-22-22-5-77-8887777755544444--|
G|--22-22-22-5-77-8887777755544444--|
D|--00-00-00-3055-6665555533322222--| 4x
pm:           *


d|--------------------------|
A|--------------------------|
F|--------------------------|
C|--2---2-2-2-2-------------|
G|--2---2-2-2-2---22222222--|
D|--0---0-0-0-0---00000000--| 4x
pm:               ********


d|---------------|     |-----|
A|---------------|     |-----|
F|---------------|     |-----|
C|--2---2-2-2-2--|     |--2--|
G|--2---2-2-2-2--|     |--2--|
D|--0---0-0-0-0--| 4x  |--0--|

Hope you like it, it's my first tab ever made, and by my opinion it's quite good
Related for Blood For The Bloodgod tab
Advertisement will be closed in 10 seconds