Guitaretab - guitar tabs
Song name
# A B C D E F G H I J K L M N O P Q R S T U V W X Y Z

Debbie Gibson - Lost In Your Eyes tab

Debbie Gibson  Lost in Your Eyes

Firstly can ya check out/rate my other tabs, thanks!

Here is all the guitar parts! Ive included lyrics to know which lick goes
where! Its a pretty good guitar song but too cheesy a song! Contact me at:
rattlehead.coolio@hotmail.com

Tablature Legend:
?(?) - bend (to whatever is in the brackets)
h    - hammer-on
p    - pull-off
~    - Vibrato
/    - Slide up
\    - Slide down

Verse I:
I get lost in your eyes
And I feel my spirits rise
And soar like the wind
Is it love that I am in?

I get weak in a glance
Isn't this what's called romance
And now I know
'Cause when I'm lost I cant let go

Chorus:
I dont mind not knowing what I'm headed for
  You can take me to the skies     It's like being lost in heaven
e|--------------------------------|---------------------15-12~~--|
B|-15(17)(15)-13-15-15(17)--13~~--|-13h15-15~~-------------------|
G|--------------------------------|-------------12~~-12----------|
D|--------------------------------|------------------------------|
A|--------------------------------|------------------------------|
E|--------------------------------|------------------------------|

  When I'm lost in your eyes
e|-10~-12~-13~~~-15(17)(15)~~~--|
B|------------------------------|
G|------------------------------|
D|------------------------------|
A|------------------------------|
E|------------------------------|

Verse II: I just fell,             dont know why
e|-------------------------|-------------------------------|
B|-------------------------|-------------5(6)~-5~-6(8)~~~--|
G|-------------5~-4~-------|-------------------------------|
D|-------------------5~~~--|-------------------------------|
A|-------------------------|-------------------------------|
E|-------------------------|-------------------------------|

Something's there we can't deny
And when I first knew                  Was when I first looked at you
e|---------------------------7(8)~~~--|-----------------------------------|
B|------------------------------------|--------------8(10)-8~~~-----------|
G|---------------------5-7-5----------|--------------------------10\9~~~--|
D|------------------------------------|-----------------------------------|
A|------------------------------------|-----------------------------------|
E|------------------------------------|-----------------------------------|

e|-5-8-6-5-10-8-7-12-10-9-14-12-14-15(17)~~~--|
B|--------------------------------------------|
G|--------------------------------------------|
D|--------------------------------------------|
A|--------------------------------------------|
E|--------------------------------------------|
[ Tab from: http://www.guitaretab.com/d/debbie-gibson/66467.html ]
  And if I can't find my way                       If salvation seems worlds away
e|-------------------------------------------------|--------------------------------|
B|-17(19)~~~-----------------7(8)-7----------------|-8p7----------------------------|
G|----------------------------------7~-9~-9(11)~~--|-----7--------------------7~~~--|
D|-------------------------------------------------|-------7~~----------------------|
A|-------------------------------------------------|--------------------------------|
E|-------------------------------------------------|--------------------------------|
  
  Oh, I'll be found   When I am lost in your eyes.............
e|------7~~~~~~-----|--------------------------------------------------------10----|
B|------------------|-----8(10)-8~~--10~~~--10(12)p7-10~-10(12)p7-10~-10(12)-------|
G|-6~~--------------|-5-7----------------------------------------------------------|
D|------------------|--------------------------------------------------------------|
A|------------------|--------------------------------------------------------------|
E|------------------|--------------------------------------------------------------|

e|-10(12)-10-8-7-----------------|
B|---------------10-8-7----------|
G|----------------------9-7~~~~--|
D|-------------------------------|
A|-------------------------------|
E|-------------------------------|

Chorus:
I don't mind not knowing what I'm headed for
e|-----------------------------------14(15)-14-12--14-12-10~--|
B|------------------------------------------------------------|
G|------------------------------------------------------------|
D|------------------------------------------------------------|
A|------------------------------------------------------------|
E|------------------------------------------------------------|

  You can take me to the skies
e|--------------------------------14(15)-14-12--14-12-10~--|
B|--------17(19)(17)-15~~~~--------------------------------|
G|---------------------------------------------------------|
D|---------------------------------------------------------|
A|---------------------------------------------------------|
E|---------------------------------------------------------|

It's like being lost in heaven              When I'm lost in your eyes
e|-9~~~-----------------------------------|----------12~-14~-15~~~-17(19)--17~~~~~--|
B|----------------------17(19)(17)-15~~~--|-----------------------------------------|
G|----------------------------------------|-----------------------------------------|
D|----------------------------------------|-----------------------------------------|
A|----------------------------------------|-----------------------------------------|
E|----------------------------------------|-----------------------------------------|

Verse III:
I get weak in a glance
Isnt this what's called romance?
   Oh, I'll be found    When I am lost          
e|---------------|----------------------------------|
B|---------------|------------------7-8-8(10)~~~~~--|
G|-7~--6~--4~~~--|---------------9~-----------------|
D|---------------|----------------------------------|
A|---------------|----------------------------------|
E|---------------|----------------------------------|

  in your eyes
e|-------------9(10)-9~--------|----------------------------|
B|----------------------10~~~--|-----------7----------------|
G|-----------------------------|-9(11)-7-9------------------|
D|-----------------------------|--------------7~~~~~~~~~~~--|
A|-----------------------------|----------------------------|
E|-----------------------------|----------------------------|

Enjoy!
Related for Lost In Your Eyes tab