Song name
# A B C D E F G H I J K L M N O P Q R S T U V W X Y Z

Deburgh Chris - Patricia The Stripper tab

Patricia The Stripper

(bit harder to tab out this one, theres a bit where its just a few random sounding 1 
changed so just improvise, would take too much effort to write)

Verse:

------------------------------------------------------------|
------------------------------------------------------------|
------------------------------------------------------------|
----------------------------4---4---4---4---2---2---2---2---|
------------------------------5---5---5---5---5---5---5---5-|
-5-5-5-5-5-5-5-5-5-5-5-5-5----------------------------------|


---------------------------------------------------------------------------------------------------|
---------------------------------------------------------------------------------------------------|
---------------------------------------------------------------------------------------------------|
----------------------------4---4---4---4---2---2---2---2----0---0---0---0---2---2---2---2---------|
------------------------------5---5---5---5---5---5---5---5----5---5---5---5---5---5---5---5-------|
-5-5-5-5-5-5-5-5-5-5-5-5-5-------------------------------------------------------------------------|

------------------------------------------|
-7-7-7-7-7-7-7-7-9-9-9-9-10-10-10-10------|
-7-7-7-7-7-7-7-7-7-7-7-7-7--7--7--7-------|
-7-7-7-7-7-7-7-7-7-7-7-7-7--7--7--7-------|
------------------------------------------|
------------------------------------------|

Chorus:

A D


Verse:

---------------------------------------|
--------------------7-7-7-7-5-5-5-5----|
--------------------7-7-7-7-7-7-7-7----|
--------------------7-7-7-7-7-7-7-7----|
---------------------------------------|
-5-5-5-5-5-5-5-5-5---------------------|


---------------------------------------|
---------------------------------------|
---------------------------------------|
---------------------------------------|
---------------------------------------|
-55555555444444442222222244444444------|

------------------------------------------|
-7-7-7-7-7-7-7-7-9-9-9-9-10-10-10-10------|
-7-7-7-7-7-7-7-7-7-7-7-7-7--7--7--7-------|
-7-7-7-7-7-7-7-7-7-7-7-7-7--7--7--7-------|
------------------------------------------|
------------------------------------------|

^variations of this last one anyway

Chorus:

A D

Mid8:

Bm C#m F#m E
Bm C#m F#m E
Bm C#m F#m E
Bm C#m D E

A......


Chorus:

A D

End:

A D E A
Tap to rate this tab
# A B C D E F G H I J K L M N O P Q R S T U V W X Y Z