Song name
# A B C D E F G H I J K L M N O P Q R S T U V W X Y Z

Deca Caszm - Paradise tab

-------------------------------------------------------------------------------
			     Paradise - Deca Caszm
-------------------------------------------------------------------------------

listen to it and hear the story here http://www.cxcr6.com/whereisdecacaszm

Tabbed by: Archetype4
Email: Ask me

Tuning: Standard


           Intro
e|------------------------------------------------------------------------|
B|------------------------------------------------------------------------|
G|------------------------------------------------------------------------|
D|------------------------------------------------------------------------|
A|---7-7-7-7-7--6-7-9-7-6p7h6--------------------6------------------------|
E|-----------------------------9-7-6-6-6-6-9-6-9---9-7-6-4-0-0-0-0--------|

e|----------------------------------------------|
B|----------------------------------------------|
G|----------------------------------------------|
D|----------------------------------------------|
A|--6-7-9-7-6h7p6-6--------------4h6p4----------|
E|------------------9-7-7-9-6-9-6-------7-6-4---|

        Verse (find rythm on your own)        Chorus(im on my way...)
e|------------------------------|------------------------------------------7---|
B|------------------------------|------------------------------------------9---|
G|----9----8--------------------|------------------------------------8-----9---|
D|----9----8-----9--------------|-------------------------9-6--------8--9--9---|
A|----7----6-----9--------------|---6---6--6-6--7---7-7-7-7-7-7------6--9--7---|
E|----0----------7--------------|---0---0--0-0--0---0-0-0-0-0-0---------7--0---|
                                                              x3           x?

post chorus
e|---------------------------------------------------------------------------|
B|---------------------------------------------------------------------------|
G|---------------------------------------------------------------------------|
D|---------------------------------------------------------------------------|
A|---7-7-7-7-7--6-7-9-7-6p7h6---------------------6--------------------------|
E|---0--------------------------9-7-6-6-6-6-9-6-9---9-7-6-4-0-0-0-0----------|

e|-------------------------------------------------|
B|-------------------------------------------------|
G|-------------------------------------------------|
D|-------------------------------------------------|
A|-----6-7-9-7-6p7h6-------------------------------|
E|-------------------9-7-6-6-9-6-9-6-9p11----------|


Verse 2
Chorus


Bridge

      (start out lilke the intro, then improvise on this scale, then throw in some of 
post chorus)
e|----------------------------------7-9-11-12-----------------------|
B|---------------------------7-9-11---------------------------------|
G|---------------------6-8-9----------------------------------------|
D|---------------6-8-9----------------------------------------------|
A|---------6-7-9----------------------------------------------------|
E|---6-7-9----------------------------------------------------------|

Verse 3
Chorus
post chorus

Verse 4
Chorus (slowly)

------------------------------

LYRICS:
I'm building a raft
it's gonna bring us back
intersecting paths
in all our spacecraft
I'm on my way
she's on her way
we're on our way
back home
yea we're already there
paradise is almost in sight
yea we're already there
paradise is almost in sight

smooth as we drift
laughing with glee
willing to crash
then fall into me
i'm on my way
she's on her way
we're on our way
back home
yea we're already there
paradise is almost in sight
yet we're already there
paradise is almost in sight

burn it
it's got to last
no squirming we
ought to smash
I'm on my way
she's on her way
we're on our way
back home
yea we're already there
paradise is almost in sight
yet we're already there
paradise is almost in sight

dreaming up our past
past though scars
see
contrasts
I'm on my way
she's on her way
we're on our way
back home

-------------------------

| /  slide up
| \  slide down
| h  hammer-on
| p  pull-off
| ~  vibrato
| +  harmonic
| x  Mute note
===============================================================================
Tap to rate this tab
# A B C D E F G H I J K L M N O P Q R S T U V W X Y Z