Decadence - Slam tab

Tabbed (4/2/2011) by SubAtomicRage
Song: Slam
Band: Decadence
Album: This is Boston, Not L.A. (1982)

Key
~ = Let the note ring
/ = Slide

Intro
e|-------------------------|
B|-------------------------|
G|-------------------------|
D|--10~----10-8-6~---6/10--|
A|--10~----10-8-6~---6/10--|
E|--8~-----8--6-4~---4/8---|

Verse
e|------------------|
B|------------------|
G|------------------|
D|--10~----4~--4----|
A|--10~----4~--4----|
E|--8~-----6~--6----|

You can also slide from the last chord of the verse back into the first one.

Pre-Chorus/Post-Chorus
e|--------|
B|--------|
G|--------|
D|--10~---|
A|--10~---|
E|--8~----|

Chorus
e|--------------------------------------------|
B|--------------------------------------------|
G|--------------------------------------------|
D|--10-10-10-10-10-10-10--6-6-6-6---8-8-8-8---|
A|--10-10-10-10-10-10-10--6-6-6-6---8-8-8-8---|
E|--8--8--8--8--8--8--8---4-4-4-4---6-6-6-6---|

End on
e|---------|
B|---------|
G|---------|
D|--10-----|
A|--10-----|
E|--8------|

Intro (x2)
Verse (x4)
Pre-Chorus/Post-Chorus
Chorus (x4)
Pre-Chorus/Post-Chorus
Intro (x2)
Verse (x4)
Pre-Chorus/Post-Chorus
Chorus (x4)
Pre-Chorus/Post-Chorus
Ending


Proof Decadence exists: http://en.wikipedia.org/wiki/This_Is_Boston,_Not_L.A.

If you have any questions or something needs to be fixed
Send a e-mail to: no19baseball@aim.com
Tap to rate this tab
 
# A B C D E F G H I J K L M N O P Q R S T U V W X Y Z