Guitaretab - guitar tabs
Song name
# A B C D E F G H I J K L M N O P Q R S T U V W X Y Z

Decapitated - Perfect Dehumanisation tab

Band: Decapitated 
Album: Nihility 
Song: Perfect Dehumanisation (The Answer?) 

Copyright (c) Earache Records, 2002 

Code: 
. - palm mute           / - slide up to 
\ - slide down to       x  Staccato 
h - hammer on           p - pull off 
, - slight palm mute    () - ghost note, sustained note 
" - tremolo note        <> - Trill 
L  left channel only   R  right channel only 
* - see comment 

Suffixes for bend 
f - full bend       h - half bend 
q - quarter bend    t - tap bend 
^ - Hold bend       r - release bend 
~ - vibrato bend 

Suffixes for harmonic 
ph - pinched harmonic   n  natural/artificial harmonic 


Tuning D G C F A D 

Intro (0:29) 
|----------| 
|----------| 
|----------| 
|----------| 
|-2--------| 
|-0---1-1--| 
      . . 

Riff 1 (0:30) (play 4 times) 
|-------------------------------------|-first--|-second---| 
|-------------------------------------|-ending-|-ending---| 
|-------------------------------------|--------|----------| 
|-------------4-----------------------|--------|----------| 
|----333------2----------333------222-|-4-5-2--|-2--------| 
|-111---333444--333444111---333444----|-2/3\0--|-0--------| 
  ............  ...............                  x 

Intro x 1 (0:46) 
Riff 1 x 1 (0:48) 

Fill 1 (1:04) 
|-------------| 
|-------------| 
|-------------| 
|-3--2--2221--| gtr 1 
|-------------| 
|-------------| 
        ...x 

|-------------| 
|-------------| 
|-------------| 
|-------------| gtr 2 
|-5--4--4443--| 
|-------------| 
        ...x 

Riff 2a (1:06) 
|------------------------------------------------------------| 
|------------------------------------------------------------| 
|------------------------------------------------------------| 
|-----2--------------------------------2---2-----------------| 
|---3---3--------7-----------------------3---3--------7---7--| 
|-5-------444444---6-3333335\3-2-3-5-3---------444444---6----| 
  . . . .        . .       . . . . . . . . . .        . . . 

|-----------| 
|-----------| 
|-----------| 
|--------6--| 
|--------4--| 
|-333333-4--| 
  ...... 



Riff 2b (1:10) 
|----------------------------------------------------------| 
|----------------------------------------------------------| 
|----------------------------------------------------------| 
|-----2--------------------------------4-3--3--3--4-3--4---| 
|---3---3--------7---------------------2-1--1--1--2-1--2---| 
|-5-------444444---6-3333335\3-2-3-4-3-2\1--1--1--2\1--2---| 
  . . . .        . .       . . . . . .   .  .  .    . 

Riff 2a x 1 (1:14) 
Riff 2b x 1 (1:18) 
Riff 2a x 1 (1:22) 
Riff 2b x 1 (1:26) 
Riff 2a x 1 (1:30) 
Riff 2b x 1 (1:34) 

Fill 2 (1:39) 
|----------| 
|----------| 
|----------| 
|-3--------| 
|-1--------| 
|-1--------| 

Riff 3a (1:41) (play 7 times) 
|----------------------------------|----------------------guitar 1--| 
|----------------------------------|--------------------------------| 
|----------------------------------|--------------------------------| 
|-8-7-----------8-7-5-6-5----------|-8-7-----------8-7-5-6-5--------| 
|-----8-7---8-6--------------------|-----8-7---8-6-----------55555--| 
|---------6---------------5-1-3-1--|---------6----------------------| 
  . . . . . . . . . . . . . . . .    . . . . . . . . . . . . 

|----------------------------------|----------------------guitar 2--| 
|-6-5-----------6-5-3-4-3----------|-6-5-----------6-5-3-4-3--------| 
|-----6-5---6-4--------------------|-----6-5---6-4------------------| 
|---------4---------------3--------|---------4----------------------| 
|---------------------------4-6-4--|-------------------------55555--| 
|----------------------------------|--------------------------------| 
  . . . . . . . . . . . . . . . .    . . . . . . . . . . . . 


Fill 3 (2:15) 
|-------| 
|-------| 
|-------| 
|-------| 
|-2-----| 
|-4-4---| 
    X 
[ Tab from: http://www.guitaretab.com/d/decapitated/101602.html ]
Riff 4 (play 4 times) (2:16) 
|--------------------------------------------------| 
|--------------------------------------------------| 
|--------------------------------------------------| 
|--------------------4-5---------------------------| 
|----333------2/3\2--2-3----333-------2/3\2-4-5-4--| 
|-111---333444-----------111---333444-------6/7\6--| 
  ............           ............ 

Riff 5 (play 4 times) (2:34) 
|----------------------------------------------| 
|----------------------------------------------| 
|----------------------------------------------| 
|----------------------------------------------| 
|-3--4-4--3-4--4-4-----------------------------| 
|-1--2-2--1/2--2-2-111111222111222222-3-3-3-5--| 
  x  x x    x  . .                    . . . . 

Riff 1 x  (2:48) 
Intro x 1 (2:56) 
Riff 1 x 1 (2:58) 
Fill 1 x 1 (3:21) 
Riff 2a x 1 (3:23) 
Riff 2b x 1 
Riff 2a x 1 
Riff 2b x 1 
Riff 2a x 1 
Riff 2b x 1 
Riff 2a x 1 
Riff 2b x 1 
Fill 2 x 1 (3:56) 
Riff 3 x  (3:59) 

Riff 6a (play 3 times) (4:16) 
|-------------------------------------------------| 
|-------------------------------------------------| 
|-------------------------------------------------| 
|-------------------------------------------------| 
|-----3-------2-----------------------------------| 
|-1/2-1---0/1-0--0-3-2-3-6-6-6-6-0-3-2-3-6-6-6-6--| 
  . .     . .    . . . . . . . . . . . . . . . . 

Riff 6b (4:28) 
|--------------------------| 
|--------------------------| 
|--------------------------| 
|--------------------------| gtr 1 
|-----3-------2------8-8~--| 
|-1/2-1---0/1-0--000-------| 
  . .     . .    ... 

|--------------------------| 
|--------------------------| 
|--------------------------| 
|--------------------------| gtr 2 
|-----3-------2------3-3~--| 
|-1/2-1---0/1-0--000-------| 
  . .     . .    ... 


Solo (4:32) 
|-17h19p17-16-17--16h17p16--16----------------------------------------------| 
|-------------------------18----17-18-15h17p15------------------------------| 
|-----------------------------------------------17-19-16-17--14-16-13h14p13-| 
|---------------------------------------------------------------------------| 
|---------------------------------------------------------------------------| 
|---------------------------------------------------------------------------| 

|----------------------------------------------------------------------| 
|----------------------------------------------------------------------| 
|---13-----------------------------------------------------------------| 
|-15--14-15--12h14p12--12----------------------------------------------| 
|--------------------15----14-15-12-14--11-12-11--11--------------11---| 
|-----------------------------------------------13--13-12-10-12-13--13-| 

|-----------------------------------------------------------------------------| 
|---------------------------------------------------------15-17-18-17-15------| 
|----------------------------------13-14-13--13-14-16-17----------------17-16-| 
|--------------12-14-15-14-15-14-15-------------------------------------------| 
|-11-12-14-15-----------------------------------------------------------------| 
|-----------------------------------------------------------------------------| 

|-----------------------------------------------------------------------------| 
|------------------------------------------15--------------15-17-18-15-17-18--| 
|-14h16p14-13-14-13-------16-17-16-14-16-17--17-16-14-16-17-------------------| 
|------------------15-14------------------------------------------------------| 
|-----------------------------------------------------------------------------| 
|-----------------------------------------------------------------------------| 

|-16-----16-17--16-17-17h19-19p17-17h19p17-16-17-16-17-16--------19-19--| 
|---17-18-----18-----------------------------------------18-17----------| 
|-----------------------------------------------------------------------| 
|-----------------------------------------------------------------------| 
|-----------------------------------------------------------------------| 
|-----------------------------------------------------------------------| 

Under solo: 
Riff 6a x 1 
Riff 6b x 1 
Riff 5 x  
Riff 4 x 1  

End (5:18) 
|--------------------------| 
|--------------------------| 
|--------------------------| 
|--------------------------| gtr 1 
|-4h5p4-3h4p3-6h7p6-5h6p5--| 
|--------------------------| 

|--------------------------| 
|--------------------------| 
|--------------------------| 
|--------------------------| gtr 2 
|--------------------------| 
|-5h6p5-4h5p4-7h8p7-6h7p6--|

End.




Related for Perfect Dehumanisation tab