Guitaretab - guitar tabs
Song name
# A B C D E F G H I J K L M N O P Q R S T U V W X Y Z

Decapitated - Fury tab

                             --- DECAPITATED --- 
                                 "The Fury" 
                     From album: "The Negation" 
                     Copyright Earache Records 2004  
                     
                            TABULATURE LEGEND: 
                   " - tremolo             h - hammer on            
                   ~ - vibrato             \ - slide down 
                   p - pull off            / - slide down 
                  tr - tremolo picking     ^ - pinch harmonics      
                   = - sustained note      b - bend string          
                p.m. - palm muting         t - tapping 

TUNING: C# [C#,F#,B,e,g#,c#] 

[Riff 1] 
|-------------------------------------------------------------------------|- 
|-------------------------------------------------------------------------|- 
|-------------------------------------------------------------------------|- 
|---------------------4\3/4--------------------------------5-5-5--3/5-5/6-|- 
|-6-5-------8-6-------2\1/2-2--5-5-5--3-3-3--6-6-6--2-2-2-----------------|- 
|-4-3-0-0-0-6-4-0-0-0-------0--3-3-3--1-1-1--4-4-4--0-0-0--3-3-3--1/3-3/4-|- 
      . . .     . . .          . . .  . . .  . . .  . . .  . . . 

-|---------------------------|----------------------------------------------| 
-|---------------------------|----------------------------------------------| 
-|---------------------------|----------------------------------------------| 
-|-------------------------8-|-------------------------------5-5-5--6\5-----| 
-|-6-5-------8-6-------9-8-6-|-2-5-5-5--3-3-3--6-6-6--2-2-2-----------------| 
-|-4-3-0-0-0-6-4-0-0-0-7-6-6-|-0-3-3-3--1-1-1--4-4-4--0-0-0--3-3-3--4\3-0-0-| 
       . . .     . . .           . . .  . . .  . . .  . . .  . . .      . . 

-|-------------------------------------------------------------------------|- 
-|-------------------------------------------------------------------------|- 
-|-------------------------------------------------------------------------|- 
-|---------------------4\3/4--------------------------------5-5-5--3/5-5/6-|- 
-|-6-5-------8-6-------2\1/2-2--5-5-5--3-3-3--6-6-6--2-2-2-----------------|- 
-|-4-3-0-0-0-6-4-0-0-0-------0--3-3-3--1-1-1--4-4-4--0-0-0--3-3-3--1/3-3/4-|- 
       . . .     . . .          . . .  . . .  . . .  . . .  . . . 

-|---------------------------|- 
-|---------------------------|- 
-|---------------------------|- 
-|-------------------------8-|- 
-|-6-5-------8-6-------9-8-6-|- 
-|-4-3-0-0-0-6-4-0-0-0-7-6-6-|- 
       . . .     . . . 

-|----------------------------------------------------| 
-|----------------------------------------------------| 
-|----------------------------------------------------| 
-|------------------------4-4-4--3-3-3----------------| 
-|-2-5-5-5--3-3-3--6-6-6--2-2-2--1-1-1--5-5-5--6-6-6--| 
-|-0-3-3-3--1-1-1--4-4-4----------------3-3-3--4-4-4--| 
     . . .  . . .  . . .  . . .  . . .  . . .  . . . 

[Riff 2] 
|----------|-------------------------------|- 
|----------|-------------------------------|- 
|----------|-------------------------------|- 
|-2--------|-3-----------------------------|- 
|-2--------|----------2-2-2--6-6-6--5-5-5--|- 
|-0--------|-1--------0-0-0--4-4-4--3-3-3--|- 
|          |          . . .  . . .  . . .  | 
|----------|-------------------------------|- 
|----------|-------------------------------|- 
|----------|-------------------------------|- 
|-2--------|-------------------------------|- 
|-2--------|----------2-2-2--6-6-6--5-5-5--|- 
|-0--------|-4~~~-----0-0-0--4-4-4--3-3-3--|- 
                      . . .  . . .  . . . 

-|----------|----------------------------------|- 
-|----------|----------------------------------|- 
-|----------|----------------------------------|- 
-|-2--------|-3--------------------------------|- 
-|-2--------|------2-2-2--3-3-3--5-5-5--6-6-6--|- 
-|-0--------|-1----0-0-0--1-1-1--3-3-3--4-4-4--|- 
 |          |      . . .  . . .  . . .  . . .  | 
-|----------|----------------------------------|- 
-|----------|----------------------------------|- 
-|----------|----------------------------------|- 
-|-2--------|-3--------------------------------|- 
-|-2--------|------2-2-2--3-3-3--5-5-5--6-6-6--|- 
-|-0--------|-1----0-0-0--1-1-1--3-3-3--4-4-4--|- 
                   . . .  . . .  . . .  . . . 

-|----------|-------------------------------|----------|------| 
-|----------|-------------------------------|----------|------| 
-|----------|-------------------------------|----------|------| 
-|-2--------|-3-----------------------------|-2--------|-5----| 
-|-2--------|----------2-2-2--6-6-6--5-5-5--|-2--------|------| 
-|-0--------|-1--------0-0-0--4-4-4--3-3-3--|-0--------|-3----| 
 |          |          . . .  . . .  . . .  |          |      | 
-|----------|-------------------------------|----------|------| 
-|----------|-------------------------------|----------|------| 
-|----------|-------------------------------|----------|------| 
-|-2--------|-------------------------------|-2--------|-6----| 
-|-2--------|----------2-2-2--6-6-6--5-5-5--|-2--------|------| 
-|-0--------|-4~~~~----0-0-0--4-4-4--3-3-3--|-0--------|-3----| 
                       . . .  . . .  . . . 
[ Tab from: http://www.guitaretab.com/d/decapitated/134707.html ]
[Riff 3 (x4)] 
||-----------------------------------|----------------------------------|- 
||o----------------------------------|----------------------------------|- 
||----------------7-------10-------9-|---------------7---------------9--|- 
||--2-------------6--------9-------8-|---------------6-------8-------8--|- 
||o-2-------------5--------8-------7-|-8-------------5-------7-------7--|- 
||--0-0-0-0-0-0-0---0-0-0----0-0-0---|-7-0-0-0-0-0-0---0-0-0-6-0-0-0----|- 
      . . . . . .   . . .    . . .       . . . . . .   . . .   . . . 

-|----------------------------------|--------------------------------|| 
-|----------------------------------|-------------------------------o|| 
-|-10-------------7-----------------|--------------------------------|| 
-|----------------6-------8-------9-|-8-------9-------8-------7-6-8--|| 
-|--8-------------5-------7---------|-------------------------5-4-6-o|| 
-|----0-0-0-0-0-0---0-0-0-6-0-0-0-7-|-6-0-0-0-7-0-0-0-6-0-0-0-----6--|| 
      . . . . . .   . . .   . . .       . . .   . . .   . . . 

[Riff 4 (x4)] 
||----------------------------------|-----------------------------------|| 
||o---------------------------------|----------------------------------o|| 
||----------------------------------|-----------------------------------|| 
||----------------------------------|-----------------------------------|| 
||o-4\3-5\4-------3-4\3-6\5-----4\3-|-4\3-5\4-------3-4\3-5\4-6\5------o|| 
||--2\1-3\2-0-0-0-1-2\1-4\3-0-0-2\1-|-2\1-3\2-0-0-0-1-2\1-3\2-4\3-0-0---|| 
            . . .           . .               . . .               . . 

[Riff 5 (x2)] /under solo#1/ 
||----------------------------------------------------|- 
||o---------------------------------------------------|- 
||----------------------------------------------------|- 
||-------------------------------------5-5-5--3/5-5/6-|- 
||o-2-2-2--5-5-5--3-3-3--6-6-6--2-2-2-----------------|- 
||--0-0-0--3-3-3--1-1-1--4-4-4--0-0-0--3-3-3--1/3-3/4-|- 
    . . .  . . .  . . .  . . .  . . .  . . . 

-|----------------------------------------------------|- 
-|----------------------------------------------------|- 
-|----------------------------------------------------|- 
-|-3-3-3------------------------------5-5-5--6\5------|- 
-|--------5-5-5--3-3-3--6-6-6--2-2-2------------------|- 
-|-1-1-1--3-3-3--1-1-1--4-4-4--0-0-0--3-3-3--4\3-0-0--|- 
   . . .  . . .  . . .  . . .  . . .  . . .      . . 

-|---------------------------------------------------|- 
-|---------------------------------------------------|- 
-|---------------------------------------------------|- 
-|------------------------------------5-5-5--3/5-5/6-|- 
-|-2-2-2--5-5-5--3-3-3--6-6-6--2-2-2-----------------|- 
-|-0-0-0--3-3-3--1-1-1--4-4-4--0-0-0--3-3-3--1/3-3/4-|- 
   . . .  . . .  . . .  . . .  . . .  . . . 

|---------------------------------------|| 
|--------------------------------------o|| 
|---------------------------------------|| 
|-4---------------3/4-3------------3----|| 
|-2-5-5-5--3-3-3--1/2-1--------6\5-1---o|| 
|---3-3-3--1-1-1--------0-0-0--4\3-1----|| 
    . . .  . . .        . . . 

[Riff 6 (x2)] 
||----------------------------|--------------------------------------|- 
||o---------------------------|--------------------------------------|- 
||----------------------------|--------------------------------------|- 
||--4---------3---------------|-3-------------------5-------6--------|- 
||o-2-5-2-3-2-1---------------|--------------------------------------|- 
||--2-3-0-1-0-1---0-0-0-0-0-0-|-1-0-0-0-0-0-0-0-0-0-3-0-0-0-4-0-0-0--|- 
|     . . . .     . . . . . . |   . . . . . . . . .   . . .   . . .  | 
||----------------------------|--------------------------------------|- 
||o---------------------------|--------------------------------------|- 
||----------------------------|---------------------3-------4--------|- 
||--4---------3---------------|-3------------------------------------|- 
||o-2-5-2-3-2-1---------------|---------------------1-------2--------|- 
||--2-3-0-1-0-1---0-0-0-0-0-0-|-1-0-0-0-0-0-0-0-0-0---0-0-0---0-0-0--|- 
      . . . .     . . . . . .     . . . . . . . . .   . . .   . . . 

-|---------------------------|--------------------------------------|| 
-|---------------------------|-------------------------------------o|| 
-|---------------------------|--------------------------------------|| 
-|-4---------3---------------|-3-------------------6-------5--------|| 
-|-2-5-2-3-2-1---------------|-------------------------------------o|| 
-|-2-3-0-1-0-1---0-0-0-0-0-0-|-1-0-0-0-0-0-0-0-0-0-4-0-0-0-3-0-0-0--|| 
 |   . . . .     . . . . . . |   . . . . . . . . .   . . .   . . .   | 
-|---------------------------|--------------------------------------|| 
-|---------------------------|-------------------------------------o|| 
-|---------------------------|---------------------5-------4--------|| 
-|-4---------3---------------|-3------------------------------------|| 
-|-2-5-2-3-2-1---------------|---------------------3-------2-------o|| 
-|-2-3-0-1-0-1---0-0-0-0-0-0-|-1-0-0-0-0-0-0-0-0-0---0-0-0---0-0-0--|| 
     . . . .     . . . . . .     . . . . . . . . .   . . .   . . . 

[RIFF 3 (X4)] [RIFF 4 (X4)] [RIFF 5 (x2)] /under solo#2/ 
[RIFF 6 (x2)] [RIFF 3 (x4)] 

END OF SONG 




Related for Fury tab