Song name
# A B C D E F G H I J K L M N O P Q R S T U V W X Y Z

Decapitated - Sensual Sickness tab

Decapitated - Sensual Sickness - Solo

Tuned to C# Standard

/ = Slide
* = Pinched Harmonic
b = bend
r = release
p = prebend
Prefixes in parenthesis () represent the bend value
i.e. (1/2)b means half bend, and (1/2)br(1/4) means half bend, then release to a quarter bend.

Notes in brackets are sustained notes []


|---------------------------------------------------|
|-----------------------------------------11-13*/14-|
|--------------------------------11-12-14-----------| 2x
|-------------------10-11-13*/14--------------------|
|----------10-12-13---------------------------------|
|-11-12-14------------------------------------------|

-------|-18----------19--------|
-17----|--------17------17-----|
----15-|----15-----15------15--| 4x
-------|-----------------------|
-------|-----------------------|
-------|-----------------------|

            This part is the same as the last, but a minor 3rd higher
-----------|-21-----------22-------|
-----20----|--------20-------20----|
-/18----18-|----18-----18-------18-| 4x
-----------|-----------------------|
-----------|-----------------------|
-----------|-----------------------|


-------21(1/2)br(1/4)-p(1/4)21(1/2)b-[21]r------|
-20-------------------p(1/4)20(1/2)b------------|
----18------------------------------------------|
------------------------------------------------|
------------------------------------------------|
------------------------------------------------|

-20-19--------------------------------|
-------21-20-18-20------18------------|
---------------------------21-19-18---|
--------------------------------------|
--------------------------------------|
--------------------------------------|

You're going to move a bit faster here
----------------------------------------18----------------18h19p18--|
----------17----------17-18-20-18-20-21----21-20-18-20-21-----------|
-16-18-19----19-18-16-----------------------------------------------|
--------------------------------------------------------------------|
--------------------------------------------------------------------|
--------------------------------------------------------------------|


----18-----------------------------------|
-21----20-21-20-21-20----20-------20-----|
----------------------22----22-22----22--|
-----------------------------------------|
-----------------------------------------|
-----------------------------------------|


If you are still confused about any notation, or would like to see more decapitated solo 
message me.
Tap to rate this tab
# A B C D E F G H I J K L M N O P Q R S T U V W X Y Z