Song name
# A B C D E F G H I J K L M N O P Q R S T U V W X Y Z

Decapitated - Spheres Of Madness tab

Band: Decapitated
Album: Nihility
Song: Spheres of Madness

Tabbed by: coVal


Tuning: Standard D (DGCFAD)

| . palm muted
| s slide
| h hammer-on
| p pull-off
| ~ vibrato

-=Intro 0:00=-
Guitar 1 & 2
   --3--   --3--
||----------------------------------|----------------------------------|
||----------------------------------|----------------------------------|
||----------------------------------|----------------------------------|
||----------------------------------|----------------------------------|
||-2-2-2---2-2-2-------2-2-2-2------|-2-2-2-2-2-2-----2-2-2-2-2-2------|
||-0-0-0---0-0-0-------0-0-0-0------|-0-0-0-0-0-0-----0-0-0-0-0-0------|
   . . .   . . .       . . . .        . . . . . .     . . . . . .

  --3--   --3--                      --3--   --3--
|----------------------------------|----------------------------------||x3
|----------------------------------|----------------------------------||
|----------------------------------|----------------------------------||
|----------------------------------|-----------------------------2----||
|-2-2-2---2-2-2-------2-2-2-2------|-2-2-2---2-2-2---2-2-2-2-2-2-2----||
|-0-0-0---0-0-0-------0-0-0-0------|-0-0-0---0-0-0---0-0-0-0-0-0-0----||
  . . .   . . .       . . . .        . . .   . . .   . . . . . . 

  --3--   --3-- 
|----------------------------------|----------------------------------|
|----------------------------------|----------------------------------|
|----------------------------------|----------------------------------|
|----------------------------------|----------------------------------|
|-2-2-2---2-2-2-------2-2-2-2------|-2-2-2-2-2-2-----2-2-2-2-2-2------|
|-0-0-0---0-0-0-------0-0-0-0------|-0-0-0-0-0-0-----0-0-0-0-0-0------|
  . . .   . . .       . . . .        . . . . . .     . . . . . .

  --3--   --3--                      --3--   --3--
|----------------------------------|----------------------------------|
|----------------------------------|----------------------------------|
|----------------------------------|----------------------------------|
|----------------------------------|----------------------------------|
|-2-2-2---2-2-2-------2-2-2-2------|-2-2-2---2-2-2---2-2-2-2-2-2------|
|-0-0-0---0-0-0-------0-0-0-0------|-0-0-0---0-0-0---0-0-0-0-0-0------|
  . . .   . . .       . . . .        . . .   . . .   . . . . . . 

-=Pre Verse 0:25=-
Guitar 1 & 2

||----------------------------------|----------------------------------|
||----------------------------------|----------------------------------|
||----------------------------------|----------------------------------|
||----------------------------------|---------8-8-5-5------------------|
||-7-7-4-4-------------6-6-3-3------|-7-7-4-4---------7-7-4-4-6-6-3-3--|
||-------------0-0------------------|----------------------------------|
   . . . .     . .     . . . .

|----------------------------------|----------------------------------||x2
|----------------------------------|----------------------------------||
|----------------------------------|----------------------------------||
|----------------------------------|----------------------------------||
|-7-7-4-4-------------6-6-3-3------|-2-2-----2-2-----2-2-2-2-2-2------||
|-------------0-0------------------|-0-0-----0-0-----0-0-0-0-0-0------||
  . . . .     . .     . . . .        . .     . .     . . . . . .

-=0:37=-
Guitar 1

||----------------------------------|----------------------------------|
||----------------------------------|----------------------------------|
||----------------------------------|----------------------------------|
||----------------------------------|---------8-8-5-5------------------|
||-7-7-4-4-------------6-6-3-3------|-7-7-4-4---------7-7-4-4-6-6-3-3--|
||-------------0-0------------------|----------------------------------|
   . . . .     . .     . . . .        . . . . . . . . . . . . . . . .

|----------------------------------|----------------------------------||x2
|----------------------------------|----------------------------------||
|----------------------------------|----------------------------------||
|----------------------------------|----------------------------------||
|-7-7-4-4-------------6-6-3-3------|-2-2-----2-2-----2-2-2-2-2-2------||
|------------0-0-------------------|-0-0-----0-0-----0-0-0-0-0-0------||
  . . . .     . .     . . . .        . .     . .     . . . . . .

Guitar 2

||----------------------------------|----------------------------------|
||----------------------------------|----------------------------------|
||----------------------------------|----------------------------------|
||----------------------------------|--------1111-8-8------------------|
||1010-7-7-------------9-9-6-6------|1010-7-7--------1010-7-7-9-9-6-6--|
||-------------0-0------------------|----------------------------------|
   . . . .     . .     . . . .        . . . . . . . . . . . . . . . . 

|----------------------------------|----------------------------------||x2
|----------------------------------|----------------------------------||
|----------------------------------|----------------------------------||
|----------------------------------|----------------------------------||
|1010-7-7-------------9-9-6-6------|-2-2-----2-2-----2-2-2-2-2-2------||
|-------------0-0------------------|-0-0-----0-0-----0-0-0-0-0-0------||
  . . . .     . .     . . . .        . .     . .     . . . . . .

-=0:49=-
Guitar 1

|------------------|
|------------------|
|------------------|
|------------------|
|-2---2---4-s-3----|
|-0---0---3-s-2----|

Guitar 2

|------------------|
|------------------|
|------------------|
|------------------|
|-2----------------|
|-0----------------|

-=0:50=-
Guitar 1 & 2

|----------------------------------|----------------------------------|
|----------------------------------|----------------------------------|
|----------------------------------|----------------------------------|
|----------------------------------|----------------------------------|
|-2---2---5s6s5s6-s-5s4-2----------|----------------------------------|
|-0---0---3s4s3s4-s-3s2-0----------|-0-0-0-0-0-0-0-0-0-0-0-0-0-0-0-0--|
  .   .                              . . . . . . . . . . . . . . . . 

|----------------------------------|----------------------------------|
|----------------------------------|----------------------------------|
|----------------------------------|----------------------------------|
|----------------------------------|----------------------------------|
|-2-2-2-2-5s6s5s6-s-5s4-2----------|-------------------------2---2----|
|-0-0-0-0-3s4s3s4-s-3s2-0----------|-0-0-0-0-0-0-0-0-0-0-0-0-0---0----|
  . . . .                            . . . . . . . . . . . . .   .

|----------------------------------|----------------------------------|
|----------------------------------|----------------------------------|
|----------------------------------|----------------------------------|
|----------------------------------|----------------------------------|
|-2-2-2-2-5s6s5s6-s-5s4-2----------|----------------------------------|
|-0-0-0-0-3s4s3s4-s-3s2-0----------|-0-0-0-0-0-0-0-0-0-0-0-0-0-0-0-0--|
  . . . .                            . . . . . . . . . . . . . . . .

|----------------------------------|----------------------------------|
|----------------------------------|----------------------------------|
|----------------------------------|----------------------------------|
|----------------------------------|----------------------------------|
|-2-2-2-2-5s6s5s6-s-5s4-2----------|-----------------4-7-4------------|
|-0-0-0-0-3s4s3s4-s-3s2-0----------|-0-0-0-0-0-0-3-6-------6-3-3------|
  . . . .                            . . . . . . . . . . . . . .

-=Verse 1:03=-
Guitar 1 & 2

|----------------------------------|----------------------------------|
|----------------------------------|----------------------------------|
|----------------------------------|----------------------------------|
|----------------------------------|---use-whammy-bar-down------------|
|-2-2-2-2-5s6s5s6-s-5s4-2----------|-2--------------------------------|
|-0-0-0-0-3s4s3s4-s-3s2-0----------|-0--------------------------------|
  . . . .

|----------------------------------|----------------------------------|
|----------------------------------|----------------------------------|
|----------------------------------|----------------------------------|
|----------------------------------|----------------------------------|
|-2-2-2-2-5s6s5s6-s-5s4-2----------|-2---2---2---2---2-2-2-2-2-2-2-2--|
|-0-0-0-0-3s4s3s4-s-3s2-0----------|-0---0---0---0---0-0-0-0-0-0-0-0--|
  . . . .                            .   .   .   .   . . . . . . . .

|----------------------------------|----------------------------------|
|----------------------------------|----------------------------------|
|----------------------------------|----------------------------------|
|----------------------------------|---use-whammy-bar-down------------|
|-2-2-2-2-5s6s5s6-s-5s4-2----------|-2--------------------------------|
|-0-0-0-0-3s4s3s4-s-3s2-0----------|-0--------------------------------|
  . . . .

|----------------------------------|----------------------------------|
|----------------------------------|----------------------------------|
|----------------------------------|----------------------------------|
|----------------------------------|----------------------------------|
|-2-2-2-2-5s6s5s6-s-5s4-2----------|-----------------4-7-4------------|
|-0-0-0-0-3s4s3s4-s-3s2-0----------|-0-0-0-0-0-0-3-6-------6-3-3------|
  . . . .                            . . . . . . . . . . . . . .

-=Chorus 1:15=-
Guitar 1

||----------------------------------|----------------------------------|
||----------------------------------|----------------------------------|
||----------------------------------|----------------------------------|
||----------------------------------|----------------------------------|
||-----------------4h7p4---4--------|-----------------4h7p4---4--------|
||-0-0-0-0-0-0-3h6-------6---6-3h6--|-0-0-0-0-0-0-3h6-------6---6-3h6--|
   . . . . . .                        . . . . . .  

|----------------------------------|----------------------------------||x4
|----------------------------------|----------------------------------||
|----------------------------------|----------------------------------||
|----------------------------------|-----------------8h10p8--8--------||
|-----------------4h7p4---4--------|-7h10p7--7-------------10-10-7h10-||
|-0-0-0-0-0-0-3h6-------6---6-3h6--|-------9---9p6-9------------------||
  . . . . . . 

Guitar 2

||----------------------------------|----------------------------------|
||----------------------------------|----------------------------------|
||----------------------------------|----------------------------------|
||-----------------8h10p8--8--------|-----------------8h10p8--8--------|
||-------------7h10------10-10-7h10-|-------------7h10------10-10-7h10-|
||-0-0-0-0-0-0----------------------|-0-0-0-0-0-0----------------------|
   . . . . . .                        . . . . . .  

|----------------------------------|-------------------------------------||x4
|----------------------------------|-----------------11h14p11--11--------||
|----------------------------------|-9h12p9--9---------------12--12-9h12-||
|-----------------8h10p8--8--------|-------11-11p8-11--------------------||
|-------------7h10------10-10-7h10-|-------------------------------------||
|-0-0-0-0-0-0----------------------|-------------------------------------||
  . . . . . . 

-=Bridge 1:40=-
Guitar 1 & 2
   --3--   --3--
||----------------------------------|----------------------------------|
||----------------------------------|----------------------------------|
||----------------------------------|----------------------------------|
||----------------------------------|----------------------------------|
||-2-2-2---2-2-2-------2-2-2-2------|-2-2-2-2-2-2-----2-2-2-2-2-2------|
||-0-0-0---0-0-0-------0-0-0-0------|-0-0-0-0-0-0-----0-0-0-0-0-0------|
   . . .   . . .       . . . .        . . . . . .     . . . . . .

  --3--   --3--                      --3--   --3--
|----------------------------------|----------------------------------||x2
|----------------------------------|----------------------------------||
|----------------------------------|----------------------------------||
|----------------------------------|-----------------------------2----||
|-2-2-2---2-2-2-------2-2-2-2------|-2-2-2---2-2-2---2-2-2-2-2-2-2----||
|-0-0-0---0-0-0-------0-0-0-0------|-0-0-0---0-0-0---0-0-0-0-0-0-0----||
  . . .   . . .       . . . .        . . .   . . .   . . . . . . 

-=Verse 1:52=-
Guitar 1 & 2

|----------------------------------|----------------------------------|
|----------------------------------|----------------------------------|
|----------------------------------|----------------------------------|
|----------------------------------|---use-whammy-bar-down------------|
|-2-2-2-2-5s6s5s6-s-5s4-2----------|-2--------------------------------|
|-0-0-0-0-3s4s3s4-s-3s2-0----------|-0--------------------------------|
  . . . .

|----------------------------------|----------------------------------|
|----------------------------------|----------------------------------|
|----------------------------------|----------------------------------|
|----------------------------------|----------------------------------|
|-2-2-2-2-5s6s5s6-s-5s4-2----------|-2---2---2---2---2-2-2-2-2-2-2-2--|
|-0-0-0-0-3s4s3s4-s-3s2-0----------|-0---0---0---0---0-0-0-0-0-0-0-0--|
  . . . .                            .   .   .   .   . . . . . . . .

|----------------------------------|----------------------------------|
|----------------------------------|----------------------------------|
|----------------------------------|----------------------------------|
|----------------------------------|---use-whammy-bar-down------------|
|-2-2-2-2-5s6s5s6-s-5s4-2----------|-2--------------------------------|
|-0-0-0-0-3s4s3s4-s-3s2-0----------|-0--------------------------------|
  . . . .

|----------------------------------|----------------------------------|
|----------------------------------|----------------------------------|
|----------------------------------|----------------------------------|
|----------------------------------|---------------------------5------|
|-2-2-2-2-5s6s5s6-s-5s4-2----------|-----------------4-7-4-----5------|
|-0-0-0-0-3s4s3s4-s-3s2-0----------|-0-0-0-0-0-0-3-6-------6-3-3------|
  . . . .                            . . . . . . . . . . . . . 

-=Chorus 2:04=-

Guitar 1

||----------------------------------|----------------------------------|
||----------------------------------|----------------------------------|
||----------------------------------|----------------------------------|
||----------------------------------|----------------------------------|
||-----------------4h7p4---4--------|-----------------4h7p4---4--------|
||-0-0-0-0-0-0-3h6-------6---6-3h6--|-0-0-0-0-0-0-3h6-------6---6-3h6--|
   . . . . . .                        . . . . . .  

|----------------------------------|----------------------------------||x3
|----------------------------------|----------------------------------||
|----------------------------------|----------------------------------||
|----------------------------------|-----------------8h10p8--8--------||
|-----------------4h7p4---4--------|-7h10p7--7-------------10-10-7h10-||
|-0-0-0-0-0-0-3h6-------6---6-3h6--|-------9---9p6-9------------------||
  . . . . . . 

Guitar 2

||----------------------------------|----------------------------------|
||----------------------------------|----------------------------------|
||----------------------------------|----------------------------------|
||-----------------8h10p8--8--------|-----------------8h10p8--8--------|
||-------------7h10------10-10-7h10-|-------------7h10------10-10-7h10-|
||-0-0-0-0-0-0----------------------|-0-0-0-0-0-0----------------------|
   . . . . . .                        . . . . . .  

|----------------------------------|-------------------------------------||x3
|----------------------------------|-----------------11h14p11--11--------||
|----------------------------------|-9h12p9--9---------------12--12-9h12-||
|-----------------8h10p8--8--------|-------11-11p8-11--------------------||
|-------------7h10------10-10-7h10-|-------------------------------------||
|-0-0-0-0-0-0----------------------|-------------------------------------||
  . . . . . . 

-=2:23=-
Guitar 1

|----------------------------------|----------------------------------|
|----------------------------------|----------------------------------|
|----------------------------------|----------------------------------|
|----------------------------------|----------------------------------|
|-----------------4h7p4---4--------|-----------------4h7p4---4--------|
|-0-0-0-0-0-0-3h6-------6---6-3h6--|-0-0-0-0-0-0-3h6-------6---6-3h6--|
   . . . . . .                        . . . . . .  

|----------------------------------|----------------------------------|
|----------------------------------|----------------------------------|
|----------------------------------|----------------------------------|
|----------------------------------|-----------------8h10p8--8~~~-----|
|-----------------4h7p4---4--------|-7h10p7--7-------------10---------|
|-0-0-0-0-0-0-3h6-------6---6-3h6--|-------9---9p6-9------------------|
  . . . . . . 

Guitar 2

|----------------------------------|----------------------------------|
|----------------------------------|----------------------------------|
|----------------------------------|----------------------------------|
|-----------------8h10p8--8--------|-----------------8h10p8--8--------|
|-------------7h10------10-10-7h10-|-------------7h10------10-10-7h10-|
|-0-0-0-0-0-0----------------------|-0-0-0-0-0-0----------------------|
   . . . . . .                        . . . . . .  

|----------------------------------|-------------------------------------|
|----------------------------------|-----------------11h14p11--11~~~-----|
|----------------------------------|-9h12p9--9---------------12----------|
|-----------------8h10p8--8--------|-------11-11p8-11--------------------|
|-------------7h10------10-10-7h10-|-------------------------------------|
|-0-0-0-0-0-0----------------------|-------------------------------------|
  . . . . . . 

-=Interlude 2:29=-
Guitar 1 & 2

||----------------------------------|----------------------------------|
||----------------------------------|----------------------------------|
||----------------------------------|----------------------------------|
||-4---5---4------------------------|----------------------------------|
||-4---5---4---------------2--------|-1-------2-------5-------4--------|
||-2---3---2-------2-2-2-----2-1-2--|---2-1-2---2-1-2---2-1-2---2-1-2--|
                   . . .     . . .      . . .   . . .   . . .   . . .

|----------------------------------|----------------------------------|
|----------------------------------|----------------------------------|
|----------------------------------|-------------------------5--------|
|-4---5---4-----------5------------|-------------------------3--------|
|-4---5---4-----------5------------|-------------------------3--------|
|-2---3---2-----------3------------|-1-1-1-1-4-4-4-4-1-1-1-1----------|
                                     . . . . . . . . . . . .

|----------------------------------|----------------------------------|
|----------------------------------|----------------------------------|
|----------------------------------|----------------------------------|
|-4---5---4------------------------|----------------------------------|
|-4---5---4---------------2--------|-1-------2-------5-------4--------|
|-2---3---2-------2-2-2-----2-1-2--|---2-1-2---2-1-2---2-1-2---2-1-2--|
                  . . .     . . .      . . .   . . .   . . .   . . .

|----------------------------------|----------------------------------||x4
|----------------------------------|----------------------------------||
|----------------------------------|----------------------------------||
|-4---5---4-----------5------------|-5--------------------------------||
|-4---5---4-----------5------------|-5--------------------------------||
|-2---3---2-----------3------------|-3--------------------------------||


-=Pre Verse 3:06=-
Guitar 1 & 2

||----------------------------------|----------------------------------|
||----------------------------------|----------------------------------|
||----------------------------------|----------------------------------|
||----------------------------------|---------8-8-5-5------------------|
||-7-7-4-4-------------6-6-3-3------|-7-7-4-4---------7-7-4-4-6-6-3-3--|
||-------------0-0------------------|----------------------------------|
   . . . .     . .     . . . .

|----------------------------------|----------------------------------||x2
|----------------------------------|----------------------------------||
|----------------------------------|----------------------------------||
|----------------------------------|----------------------------------||
|-7-7-4-4-------------6-6-3-3------|-2-2-----2-2-----2-2-2-2-2-2------||
|-------------0-0------------------|-0-0-----0-0-----0-0-0-0-0-0------||
  . . . .     . .     . . . .        . .     . .     . . . . . .

-=3:19=-
Guitar 1

||----------------------------------|----------------------------------|
||----------------------------------|----------------------------------|
||----------------------------------|----------------------------------|
||----------------------------------|---------8-8-5-5------------------|
||-7-7-4-4-------------6-6-3-3------|-7-7-4-4---------7-7-4-4-6-6-3-3--|
||-------------0-0------------------|----------------------------------|
   . . . .     . .     . . . .        . . . . . . . . . . . . . . . .

|----------------------------------|----------------------------------||x2
|----------------------------------|----------------------------------||
|----------------------------------|----------------------------------||
|----------------------------------|----------------------------------||
|-7-7-4-4-------------6-6-3-3------|-2-2-----2-2-----2-2-2-2-2-2------||
|------------0-0-------------------|-0-0-----0-0-----0-0-0-0-0-0------||
  . . . .     . .     . . . .        . .     . .     . . . . . .

Guitar 2

||----------------------------------|----------------------------------|
||----------------------------------|----------------------------------|
||----------------------------------|----------------------------------|
||----------------------------------|--------1111-8-8------------------|
||1010-7-7-------------9-9-6-6------|1010-7-7--------1010-7-7-9-9-6-6--|
||-------------0-0------------------|----------------------------------|
   . . . .     . .     . . . .        . . . . . . . . . . . . . . . . 

|----------------------------------|----------------------------------||x2
|----------------------------------|----------------------------------||
|----------------------------------|----------------------------------||
|----------------------------------|----------------------------------||
|1010-7-7-------------9-9-6-6------|-2-2-----2-2-----2-2-2-2-2-2------||
|-------------0-0------------------|-0-0-----0-0-----0-0-0-0-0-0------||
  . . . .     . .     . . . .        . .     . .     . . . . . .

-=3:31=-
Guitar 1

|------------------|
|------------------|
|------------------|
|------------------|
|-2---2---4-s-3----|
|-0---0---3-s-2----|

Guitar 2

|------------------|
|------------------|
|------------------|
|------------------|
|-2----------------|
|-0----------------|

-=3:32=-
Guitar 1 & 2

|----------------------------------|----------------------------------|
|----------------------------------|----------------------------------|
|----------------------------------|----------------------------------|
|----------------------------------|----------------------------------|
|-2---2---5s6s5s6-s-5s4-2----------|----------------------------------|
|-0---0---3s4s3s4-s-3s2-0----------|-0-0-0-0-0-0-0-0-0-0-0-0-0-0-0-0--|
  .   .                              . . . . . . . . . . . . . . . . 

|----------------------------------|----------------------------------|
|----------------------------------|----------------------------------|
|----------------------------------|----------------------------------|
|----------------------------------|----------------------------------|
|-2-2-2-2-5s6s5s6-s-5s4-2----------|-------------------------2---2----|
|-0-0-0-0-3s4s3s4-s-3s2-0----------|-0-0-0-0-0-0-0-0-0-0-0-0-0---0----|
  . . . .                            . . . . . . . . . . . . .   .

|----------------------------------|----------------------------------|
|----------------------------------|----------------------------------|
|----------------------------------|----------------------------------|
|----------------------------------|----------------------------------|
|-2-2-2-2-5s6s5s6-s-5s4-2----------|----------------------------------|
|-0-0-0-0-3s4s3s4-s-3s2-0----------|-0-0-0-0-0-0-0-0-0-0-0-0-0-0-0-0--|
  . . . .                            . . . . . . . . . . . . . . . .

|----------------------------------|----------------------------------|
|----------------------------------|----------------------------------|
|----------------------------------|----------------------------------|
|----------------------------------|----------------------------------|
|-2-2-2-2-5s6s5s6-s-5s4-2----------|-----------------4-7-4------------|
|-0-0-0-0-3s4s3s4-s-3s2-0----------|-0-0-0-0-0-0-3-6-------6-3-3------|
  . . . .                            . . . . . . . . . . . . . .

-=Verse 3:44=-
Guitar 1 & 2

|----------------------------------|----------------------------------|
|----------------------------------|----------------------------------|
|----------------------------------|----------------------------------|
|----------------------------------|---use-whammy-bar-down------------|
|-2-2-2-2-5s6s5s6-s-5s4-2----------|-2--------------------------------|
|-0-0-0-0-3s4s3s4-s-3s2-0----------|-0--------------------------------|
  . . . .

|----------------------------------|----------------------------------|
|----------------------------------|----------------------------------|
|----------------------------------|----------------------------------|
|----------------------------------|----------------------------------|
|-2-2-2-2-5s6s5s6-s-5s4-2----------|-2---2---2---2---2-2-2-2-2-2-2-2--|
|-0-0-0-0-3s4s3s4-s-3s2-0----------|-0---0---0---0---0-0-0-0-0-0-0-0--|
  . . . .                            .   .   .   .   . . . . . . . .

|----------------------------------|----------------------------------|
|----------------------------------|----------------------------------|
|----------------------------------|----------------------------------|
|----------------------------------|---use-whammy-bar-down------------|
|-2-2-2-2-5s6s5s6-s-5s4-2----------|-2--------------------------------|
|-0-0-0-0-3s4s3s4-s-3s2-0----------|-0--------------------------------|
  . . . .

|----------------------------------|----------------------------------|
|----------------------------------|----------------------------------|
|----------------------------------|----------------------------------|
|----------------------------------|---------------------------5------|
|-2-2-2-2-5s6s5s6-s-5s4-2----------|-----------------4-7-4-----5------|
|-0-0-0-0-3s4s3s4-s-3s2-0----------|-0-0-0-0-0-0-3-6-------6-3-3------|
  . . . .                            . . . . . . . . . . . . . 

-=Chorus 3:57=-
Guitar 1

||----------------------------------|----------------------------------|
||----------------------------------|----------------------------------|
||----------------------------------|----------------------------------|
||----------------------------------|----------------------------------|
||-----------------4h7p4---4--------|-----------------4h7p4---4--------|
||-0-0-0-0-0-0-3h6-------6---6-3h6--|-0-0-0-0-0-0-3h6-------6---6-3h6--|
   . . . . . .                        . . . . . .  

|----------------------------------|----------------------------------||x4
|----------------------------------|----------------------------------||
|----------------------------------|----------------------------------||
|----------------------------------|-----------------8h10p8--8--------||
|-----------------4h7p4---4--------|-7h10p7--7-------------10-10-7h10-||
|-0-0-0-0-0-0-3h6-------6---6-3h6--|-------9---9p6-9------------------||
  . . . . . . 

Guitar 2

||----------------------------------|----------------------------------|
||----------------------------------|----------------------------------|
||----------------------------------|----------------------------------|
||-----------------8h10p8--8--------|-----------------8h10p8--8--------|
||-------------7h10------10-10-7h10-|-------------7h10------10-10-7h10-|
||-0-0-0-0-0-0----------------------|-0-0-0-0-0-0----------------------|
   . . . . . .                        . . . . . .  

|----------------------------------|-------------------------------------||x4
|----------------------------------|-----------------11h14p11--11--------||
|----------------------------------|-9h12p9--9---------------12--12-9h12-||
|-----------------8h10p8--8--------|-------11-11p8-11--------------------||
|-------------7h10------10-10-7h10-|-------------------------------------||
|-0-0-0-0-0-0----------------------|-------------------------------------||
  . . . . . . 

-=Outro 4:22=-
Play Chorus till the end.


Good Luck
Tap to rate this tab
 
# A B C D E F G H I J K L M N O P Q R S T U V W X Y Z