Song name
# A B C D E F G H I J K L M N O P Q R S T U V W X Y Z

Decapitated - Names tab

NAMES
                           As recorded by Decapitated
                        (From the 2002 Album "NIHILITY")

Words and Music by Decapitated
Arranged by Yura Kowalchuk [yura_kowalchuk@mail.ru]
Transcribed by Yura Kowalchuk

Gtr I (D G C F A D) - 'Untitled'
Gtr II (D G C F A D) - 'Untitled'

  Q=140
  Gtr I
     PM--------------------|
     |-3-| |-3-| |-3-------|
  Q  E E E E E E E E E   H
|----------------------|------|
|----------------------|------|
|----------------------|------|
|--------------3-------|------|
|-3--2-----5-2---2-5---|------|
|-1----4-1-----------4-|------|
|
| Gtr II
|    PM--------------------|
|    |-3-| |-3-| |-3-------|
| Q  E E E E E E E E E   H
|----------------------|------|
|----------------------|------|
|----------------------|------|
|--------------3-------|------|
|-3--2-----5-2---2-5---|------|
|-1----4-1-----------4-|------|


    |-3-| |-3-| |-3-|      |----3----| |-3-| |-3-| |-3-|
  E S S S E E E E E E Q    S S S S S S E E E E E E E E E
|------------------------|-------------------------------|
|------------------------|-------------------------------|
|------------------------|-------------------------------|
|------------------------|-------------------------------|
|-2----------------------|-------------------------------|
|-0-0-0-0-6S7-7-7-6-6-6--|-0-0-0-0-0-0-6S7-7-7S9-9-9S6-6-|
|
|   |-3-| |-3-| |-3-|      |----3----| |-3-| |-3-| |-3-|
| E S S S E E E E E E Q    S S S S S S E E E E E E E E E
|------------------------|-------------------------------|
|------------------------|-------------------------------|
|------------------------|-------------------------------|
|------------------------|-------------------------------|
|-2----------------------|-------------------------------|
|-0-0-0-0-6S7-7-7-6-6-6--|-0-0-0-0-0-0-6S7-7-7S9-9-9S6-6-|


  |----3----| |-3-| |-3-|
  S S S S S S E E E E E E Q
|-----------------------------|
|-----------------------------|
|-----------------------------|
|-----------------------------|
|-----------------------------|
|-0-0-0-0-0-0-6S7-7-7S6-6-6---|
|
| |----3----| |-3-| |-3-|
| S S S S S S E E E E E E Q
|-----------------------------|
|-----------------------------|
|-----------------------------|
|-----------------------------|
|-----------------------------|
|-0-0-0-0-0-0-6S7-7-7S6-6-6---|


                          PM--------|
  |----3----| |----3----| |-3-| |-3-|
  S S S S S S S S S S S S E E E E E E
|-------------------------------------|
|-------------------------------------|
|-------------------------------------|
|-------------------------------------|
|-------------------------------2-----|
|-0-0-0-0-0-0-1-1-1-1-1-1-4-1-0---4-1-|
|
|                         PM--------|
| |----3----| |----3----| |-3-| |-3-|
| S S S S S S S S S S S S E E E E E E
|-------------------------------------|
|-------------------------------------|
|-------------------------------------|
|-------------------------------------|
|-------------------------------2-----|
|-0-0-0-0-0-0-1-1-1-1-1-1-4-1-0---4-1-|


  |----3----| |-3-| |-3-|      |----3----| |-3-| |-3-| |-3-|
  S S S S S S E E E E E E Q    S S S S S S E E E E E E E E E
|----------------------------|----------------------------------|
|----------------------------|----------------------------------|
|----------------------------|----------------------------------|
|----------------------------|----------------------------------|
|----------------------------|----------------------------------|
|-0-0-0-0-0-0-6S7-7-7-6-6-6--|-0-0-0-0-0-0-6S7-7-7S9-9-9S6-6----|
|
| |----3----| |-3-| |-3-|      |----3----| |-3-| |-3-| |-3-|
| S S S S S S E E E E E E Q    S S S S S S E E E E E E E E E
|----------------------------|----------------------------------|
|----------------------------|----------------------------------|
|----------------------------|----------------------------------|
|----------------------------|----------------------------------|
|----------------------------|----------------------------------|
|-0-0-0-0-0-0-6S7-7-7-6-6-6--|-0-0-0-0-0-0-6S7-7-7S9-9-9S6-6----|


                                  PM--------------|
  |----3----| |-3-| |-3-|         |-3-| |-3-| |-3-|
  S S S S S S E E E E E E Q    Q  E E E E E E E E E
|----------------------------|-------------------------|
|----------------------------|-------------------------|
|----------------------------|-------------------------|
|----------------------------|--------------3----------|
|----------------------------|-3--2-----5-2---2-5------|
|-0-0-0-0-0-0-6S7-7-7S6-6-6--|-1----4-1-----------4----|
|
|                                 PM--------------|
| |----3----| |-3-| |-3-|         |-3-| |-3-| |-3-|
| S S S S S S E E E E E E Q    Q  E E E E E E E E E
|----------------------------|-------------------------|
|----------------------------|-------------------------|
|----------------------------|-------------------------|
|----------------------------|--------------3----------|
|----------------------------|-3--2-----5-2---2-5------|
|-0-0-0-0-0-0-6S7-7-7S6-6-6--|-1----4-1-----------4----|


    |-3-| |-3-|    |----3----|
  E S S S E E E Q  S S S S S S
|------------------------------|
|------------------------------|
|------------------------------|
|------------------------------|
|-2-------6S7-7-7--------------|
|-0-0-0-0----------0-0-0-0-0-0-|
|
|   |-3-| |-3-|    |----3----|
| E S S S E E E Q  S S S S S S
|------------------------------|
|------------------------------|
|------------------------------|
|------------------------------|
|-2-------6S7-7-7--------------|
|-0-0-0-0----------0-0-0-0-0-0-|


  |-3-| |-3-| |--3--|  |-3-|   |----3----| |-3-|
  E E E E E E E  E  E  E E E   S S S S S S E E E Q
|----------------------------|-----------------------|
|----------------------------|-----------------------|
|----------------------------|-----------------------|
|----------------------------|-----------------------|
|-6S7-7-7S9-9-9S10-10-10S6-6-|-------------6S7-7-7---|
|----------------------------|-0-0-0-0-0-0-----------|
|
| |-3-| |-3-| |--3--|  |-3-|   |----3----| |-3-|
| E E E E E E E  E  E  E E E   S S S S S S E E E Q
|----------------------------|-----------------------|
|----------------------------|-----------------------|
|----------------------------|-----------------------|
|----------------------------|-----------------------|
|-6S7-7-7S9-9-9S10-10-10S6-6-|-------------6S7-7-7---|
|----------------------------|-0-0-0-0-0-0-----------|


  |----3----| |-3-| |-3-| |-3-|   |-3-| |-3-| |-3-|
  S S S S S S E E E E E E E E E   E E E E E E E E E Q
|-------------------------------|----------------------|
|-------------------------------|----------------------|
|-------------------------------|----------------------|
|-------------------------------|----------------------|
|-------------6S7-7-7-7-7-7-6-6-|-6-6-6-6-----6S7-7-7--|
|-0-0-0-0-0-0---------7-7-7-6-6-|-6-6-6-6-0-0----------|
|
| |----3----| |-3-| |-3-| |-3-|   |-3-| |-3-| |-3-|
| S S S S S S E E E E E E E E E   E E E E E E E E E Q
|-------------------------------|----------------------|
|-------------------------------|----------------------|
|-------------------------------|----------------------|
|-------------------------------|----------------------|
|-------------6S7-7-7-7-7-7-6-6-|-6-6-6-6-----6S7-7-7--|
|-0-0-0-0-0-0---------7-7-7-6-6-|-6-6-6-6-0-0----------|


  |----3----| |-3-| |-3-| |--3--|    |--3--|
  S S S S S S E E E E E E E  E  E    E  E  E q
|---------------------------------|--------------|
|---------------------------------|--------------|
|---------------------------------|--------------|
|---------------------------------|--------------|
|-------------6S7-7-7S9-9-9S10-10-|-10S12-12-----|
|-0-0-0-0-0-0---------------------|----------0---|
|
| |----3----| |-3-| |-3-| |--3--|    |--3--|
| S S S S S S E E E E E E E  E  E    E  E  E q
|---------------------------------|--------------|
|---------------------------------|--------------|
|---------------------------------|--------------|
|---------------------------------|--------------|
|-------------6S7-7-7S9-9-9S10-10-|-10S12-12-----|
|-0-0-0-0-0-0---------------------|----------0---|


  |-3-|    |----------3----------|   |-3-| |-3-| |--3--| |----3----|
  E E E Q  S S S S S S S S S S S S   E E E E E E E  E  E S S S S S S
|----------------------------------|---------------------------------|
|----------------------------------|---------------------------------|
|----------------------------------|---------------------------------|
|-8-8-8-8--------------------------|-8-8-8-8-7-7-7-10-10-------------|
|----------------------------------|---------------------------------|
|----------0-0-0-0-0-0-0-0-0-0-0-0-|---------------------0-0-0-0-0-0-|
|
| |-3-|    |----------3----------|   |-3-| |-3-| |--3--| |----3----|
| E E E Q  S S S S S S S S S S S S   E E E E E E E  E  E S S S S S S
|----------------------------------|---------------------------------|
|----------------------------------|---------------------------------|
|----------------------------------|---------------------------------|
|-8-8-8-8--------------------------|-8-8-8-8-7-7-7-10-10-------------|
|----------------------------------|---------------------------------|
|----------0-0-0-0-0-0-0-0-0-0-0-0-|---------------------0-0-0-0-0-0-|


   |--3--|     |----------3----------|
   E  E  E  Q  S S S S S S S S S S S S
|-----------------------------------------|
|-----------------------------------------|
|-----------------------------------------|
|-11-11-11-11-----------------------------|
|-----------------------------------------|
|--------------0-0-0-0-0-0-0-0-0-0-0-0----|
|
|  |--3--|     |----------3----------|
|  E  E  E  Q  S S S S S S S S S S S S
|-----------------------------------------|
|-----------------------------------------|
|-----------------------------------------|
|-11-11-11-11-----------------------------|
|-----------------------------------------|
|--------------0-0-0-0-0-0-0-0-0-0-0-0----|


   |--3--|  |--3--|  |-3-| |----3----|
   E  E  E  E  E  E  E E E S S S S S S
|--------------------------------------|
|--------------------------------------|
|--------------------------------------|
|-11-11-11-11-10-10-10-6-6-------------|
|-13-13-13-13-12-12-12-8-8-------------|
|--------------------------0-0-0-0-0-0-|
|
|  |--3--|  |--3--|  |-3-| |----3----|
|  E  E  E  E  E  E  E E E S S S S S S
|--------------------------------------|
|--------------------------------------|
|--------------------------------------|
|-11-11-11-11-10-10-10-6-6-------------|
|-13-13-13-13-12-12-12-8-8-------------|
|--------------------------0-0-0-0-0-0-|


  |-3-|    |----------3----------|   |-3-| |-3-|
  E E E Q  S S S S S S S S S S S S   E E E E E E E E
|----------------------------------|-------------------|
|----------------------------------|-------------------|
|----------------------------------|-------------------|
|-8-8-8-8--------------------------|-8-8-8-8-7-7-7-----|
|----------------------------------|-------------------|
|----------0-0-0-0-0-0-0-0-0-0-0-0-|-------------------|
|
| |-3-|    |----------3----------|   |-3-| |-3-|
| E E E Q  S S S S S S S S S S S S   E E E E E E E E
|----------------------------------|-------------------|
|----------------------------------|-------------------|
|----------------------------------|-------------------|
|-8-8-8-8--------------------------|-8-8-8-8-7-7-7-----|
|----------------------------------|-------------------|
|----------0-0-0-0-0-0-0-0-0-0-0-0-|-------------------|


                  |----3----| |-3-|
  W          +Q   S S S S S S E E E E E
|----------|-------------------------------|
|----------|-------------------------------|
|----------|-------------------------------|
|----------|-------------------------------|
|-2--------|-(2)--------------------2------|
|-0--------|-(0)--1-1-1-1-1-1-4-1-0--------|
|
|                 |----3----| |-3-|
| W          +Q   S S S S S S E E E E E
|----------|-------------------------------|
|----------|-------------------------------|
|----------|-------------------------------|
|----------|-------------------------------|
|-2--------|-(2)--------------------2------|
|-0--------|-(0)--1-1-1-1-1-1-4-1-0--------|


                   PM------------------------------------------------|
       |----3----| |-3-| |-3-|   |----3----| |----3----| |----3------|
    Q  S S S S S S E E E E E E   S S S S S S S S S S S S S S S S S S Q
||-----------------------------|-----------------------------------------|
||o----------------------------|-----------------------------------------|
||-----------------------------|-----------------------------------------|
||-----------------------------|-----------------------------------------|
||o-2--------------------2-----|-------------------------------------2---|
||--0--1-1-1-1-1-1-4-1-0---4-1-|-0-0-0-0-0-0-1-1-1-1-1-0-1-1-1-1-1-0-0---|
|
|                  PM------------------------------------------------|
|      |----3----| |-3-| |-3-|   |----3----| |----3----| |----3------|
|   Q  S S S S S S E E E E E E   S S S S S S S S S S S S S S S S S S Q
||-----------------------------|-----------------------------------------|
||o----------------------------|-----------------------------------------|
||-----------------------------|-----------------------------------------|
||-----------------------------|-----------------------------------------|
||o-2--------------------2-----|-------------------------------------2---|
||--0--1-1-1-1-1-1-4-1-0---4-1-|-0-0-0-0-0-0-1-1-1-1-1-0-1-1-1-1-1-0-0---|


                 PM--------|               PM--------------|
     |----3----| |-3-| |-3-|   |----3----| |-3-| |-3-| |-3-|
  Q  S S S S S S E E E E E E   S S S S S S E E E E E E E E E
|----------------------------|-------------------------------|
|----------------------------|-------------------------------|
|----------------------------|-------------------------------|
|----------------------------|-----------------------3-------|
|-2--------------------2-----|-------------2-----5-2---2-5---|
|-0--1-1-1-1-1-1-4-1-0---4-1-|-0-0-0-0-0-0---4-1-----------4-|
|
|                PM--------|               PM----------------|
|    |----3----| |-3-| |-3-|   |----3----| |-3-| |-3-| |-3---|
| Q  S S S S S S E E E E E E   S S S S S S E E E E E E E E E
|----------------------------|-------------------------------|
|----------------------------|-------------------------------|
|----------------------------|-------------------------------|
|----------------------------|-----------------------3-------|
|-2--------------------2-----|-------------2-----5-2---2-5---|
|-0--1-1-1-1-1-1-4-1-0---4-1-|-0-0-0-0-0-0---4-1-----------4-|


                 PM------------------------------------------------|
     |----3----| |-3-| |-3-|   |----3----| |----3----| |----3------|
  Q  S S S S S S E E E E E E   S S S S S S S S S S S S S S S S S S Q
|----------------------------|----------------------------------------|
|----------------------------|----------------------------------------|
|----------------------------|----------------------------------------|
|----------------------------|----------------------------------------|
|-2--------------------2-----|-------------------------------------2--|
|-0--1-1-1-1-1-1-4-1-0---4-1-|-0-0-0-0-0-0-1-1-1-1-1-0-1-1-1-1-1-0-0--|
|
|                PM------------------------------------------------|
|    |----3----| |-3-| |-3-|   |----3----| |----3----| |----3------|
| Q  S S S S S S E E E E E E   S S S S S S S S S S S S S S S S S S Q
|----------------------------|----------------------------------------|
|----------------------------|----------------------------------------|
|----------------------------|----------------------------------------|
|----------------------------|----------------------------------------|
|-2--------------------2-----|-------------------------------------2--|
|-0--1-1-1-1-1-1-4-1-0---4-1-|-0-0-0-0-0-0-1-1-1-1-1-0-1-1-1-1-1-0-0--|


                               1.
                 PM--------|               PM--------------|
     |----3----| |-3-| |-3-|   |----3----| |-3-| |-3-| |-3-|
  Q  S S S S S S E E E E E E   S S S S S S E E E E E E E E E
|----------------------------|--------------------------------||----|
|----------------------------|-------------------------------o||----|
|----------------------------|--------------------------------||----|
|----------------------------|--------------------------------||----|
|-2--------------------2-----|-------------8-5-7-3-5-2-3-----o||----|
|-0--1-1-1-1-1-1-4-1-0---4-1-|-0-0-0-0-0-0---------------5-4--||----|
|
|                PM--------|               PM--------------|
|    |----3----| |-3-| |-3-|   |----3----| |-3-| |-3-| |-3-|
| Q  S S S S S S E E E E E E   S S S S S S E E E E E E E E E
|----------------------------|--------------------------------||----|
|----------------------------|-------------------------------o||----|
|----------------------------|--------------------------------||----|
|----------------------------|--------------------------------||----|
|-2--------------------2-----|-------------8-5-7-3-5-2-3-----o||----|
|-0--1-1-1-1-1-1-4-1-0---4-1-|-0-0-0-0-0-0---------------5-4--||----|


  2.
                          PM--|
  |----3----| |----3----| |-3-| |----3----|
  S S S S S S S S S S S S E E E S S S S S S   E E
|-------------------------------------------|--------|
|-------------------------------------------|--------|
|-------------------------------------------|--------|
|-------------------------------------------|--------|
|-------------------------2-5---------------|-2------|
|-0-0-0-0-0-0-1-1-1-1-1-1-----4-1-1-1-1-1-1-|-0------|
|
|                         PM--|
| |----3----| |----3----| |-3-| |----3----|
| S S S S S S S S S S S S E E E S S S S S S   E E
|-------------------------------------------|--------|
|-------------------------------------------|--------|
|-------------------------------------------|--------|
|-------------------------------------------|--------|
|-------------------------2-5---------------|-2------|
|-0-0-0-0-0-0-1-1-1-1-1-1-----4-1-1-1-1-1-1-|-0------|


                                    |----3----| |----3----|
  Q           Q           Q   E E   S S S S S S S S S S S S E E E E
|---------------------------------|-----------------------------------|
|---------------------------------|-----------------------------------|
|---------------------------------|-----------------------------------|
|---------------------------------|-----------------------------------|
|-----------------------------2---|-------------------------2---2-----|
|-----------------------------0---|-1-1-1-1-1-1-1-1-1-1-1-1-0---0-----|
|
| |----3----| |----3----|           |----3----| |----3----|
| S S S S S S S S S S S S E E E E   S S S S S S S S S S S S E E E E
|---------------------------------|-----------------------------------|
|---------------------------------|-----------------------------------|
|---------------------------------|-----------------------------------|
|---------------------------------|-----------------------------------|
|-------------------------2---2---|-------------------------2---2-----|
|-1-1-1-1-1-1-1-1-1-1-1-1-0---0---|-1-1-1-1-1-1-1-1-1-1-1-1-0---0-----|


  |----3----| |----3----|
  S S S S S S S S S S S S E E E E
|---------------------------------|
|---------------------------------|
|---------------------------------|
|---------------------------------|
|-------------------------2---2---|
|-1-1-1-1-1-1-1-1-1-1-1-1-0---0---|
|
| |----3----| |----3----|
| S S S S S S S S S S S S E E E E
|---------------------------------|
|---------------------------------|
|---------------------------------|
|---------------------------------|
|-------------------------2---2---|
|-1-1-1-1-1-1-1-1-1-1-1-1-0---0---|


  |----3----| |----3----|           |----3----| |----3----|
  S S S S S S S S S S S S E E E E   S S S S S S S S S S S S E E E E
|---------------------------------|---------------------------------|
|---------------------------------|---------------------------------|
|---------------------------------|---------------------------------|
|---------------------------------|---------------------------------|
|-------------------------2---2---|-------------------------2---2---|
|-1-1-1-1-1-1-1-1-1-1-1-1-0---0---|-1-1-1-1-1-1-1-1-1-1-1-1-0---0---|
|
| |----3----| |----3----|           |----3----| |----3----|
| S S S S S S S S S S S S E E E E   S S S S S S S S S S S S E E E E
|---------------------------------|---------------------------------|
|---------------------------------|---------------------------------|
|---------------------------------|---------------------------------|
|---------------------------------|---------------------------------|
|-------------------------2---2---|-------------------------2---2---|
|-1-1-1-1-1-1-1-1-1-1-1-1-0---0---|-1-1-1-1-1-1-1-1-1-1-1-1-0---0---|


  |----3----| |----3----|
  S S S S S S S S S S S S E E E E
|---------------------------------|
|---------------------------------|
|---------------------------------|
|---------------------------------|
|-------------------------2---2---|
|-1-1-1-1-1-1-1-1-1-1-1-1-0---0---|
|
| |----3----| |----3----|
| S S S S S S S S S S S S E E E E
|---------------------------------|
|---------------------------------|
|---------------------------------|
|---------------------------------|
|-------------------------2---2---|
|-1-1-1-1-1-1-1-1-1-1-1-1-0---0---|


  |----3----| |----3----|           |----3----| |----3----|
  S S S S S S S S S S S S E E E E   S S S S S S S S S S S S E E E E
|---------------------------------|---------------------------------|
|---------------------------------|---------------------------------|
|---------------------------------|---------------------------------|
|---------------------------------|---------------------------------|
|-------------------------2---2---|-------------------------2---2---|
|-1-1-1-1-1-1-1-1-1-1-1-1-0---0---|-1-1-1-1-1-1-1-1-1-1-1-1-0---0---|
|
| |----3----| |----3----|           |----3----| |----3----|
| S S S S S S S S S S S S E E E E   S S S S S S S S S S S S E E E E
|---------------------------------|---------------------------------|
|---------------------------------|---------------------------------|
|---------------------------------|---------------------------------|
|---------------------------------|---------------------------------|
|-------------------------2---2---|-------------------------2---2---|
|-1-1-1-1-1-1-1-1-1-1-1-1-0---0---|-1-1-1-1-1-1-1-1-1-1-1-1-0---0---|


 3/4                               4/4
                                                   PM--------|
  |----3----| |-3-| |----3----|        |----3----| |-3-| |-3-|
  S S S S S S E E E S S S S S S     Q  S S S S S S E E E E E E   W     3x
|-------------------------------||-----------------------------|-------||
|-------------------------------||o----------------------------|------o||
|-------------------------------||-----------------------------|-------||
|-------------------------------||-----------------------------|-------||
|-------------2-5---------------||o-2--------------------2-----|-2----o||
|-1-1-1-1-1-1-----4-1-1-1-1-1-1-||--0--1-1-1-1-1-1-4-1-0---4-1-|-0-----||
|
|                                                  PM--------|
| |----3----| |-3-| |----3----|        |----3----| |-3-| |-3-|
| S S S S S S E E E S S S S S S     Q  S S S S S S E E E E E E   W     3x
|-------------------------------||-----------------------------|-------||
|-------------------------------||o----------------------------|------o||
|-------------------------------||-----------------------------|-------||
|-------------------------------||-----------------------------|-------||
|-------------2-5---------------||o-2--------------------2-----|-2----o||
|-1-1-1-1-1-1-----4-1-1-1-1-1-1-||--0--1-1-1-1-1-1-4-1-0---4-1-|-0-----||


                                                              2/4
                 PM--------|               PM--------------|
     |----3----| |-3-| |-3-|   |----3----| |-3-| |-3-| |-3-|
  Q  S S S S S S E E E E E E   S S S S S S E E E E E E E E E   Q  Q
|----------------------------|-------------------------------|--------|
|----------------------------|-------------------------------|--------|
|----------------------------|-------------------------------|--------|
|----------------------------|-----------------------3-------|--------|
|-2--------------------2-----|-------------2-----5-2---2-5---|--------|
|-0--1-1-1-1-1-1-4-1-0---4-1-|-1-1-1-1-1-1---4-1-----------4-|--------|
|
|                PM--------|               PM--------------|
|    |----3----| |-3-| |-3-|   |----3----| |-3-| |-3-| |-3-|
| Q  S S S S S S E E E E E E   S S S S S S E E E E E E E E E   Q  Q
|----------------------------|-------------------------------|--------|
|----------------------------|-------------------------------|--------|
|----------------------------|-------------------------------|--------|
|----------------------------|-----------------------3-------|--------|
|-2--------------------2-----|-------------2-----5-2---2-5---|--------|
|-0--1-1-1-1-1-1-4-1-0---4-1-|-1-1-1-1-1-1---4-1-----------4-|--------|


    |-3-| |-3-| |-3-|      |----3----| |-3-| |-3-| |-3-|
  E S S S E E E E E E Q    S S S S S S E E E E E E E E E
|------------------------|-------------------------------|
|------------------------|-------------------------------|
|------------------------|-------------------------------|
|------------------------|-------------------------------|
|-2----------------------|-------------------------------|
|-0-0-0-0-6S7-7-7-6-6-6--|-0-0-0-0-0-0-2S3-3-3S5-5-5S2-2-|
|
|   |-3-| |-3-| |-3-|      |----3----| |-3-| |-3-| |-3-|
| E S S S E E E E E E Q    S S S S S S E E E E E E E E E
|------------------------|-------------------------------|
|------------------------|-------------------------------|
|------------------------|-------------------------------|
|------------------------|-------------------------------|
|-2----------------------|-------------------------------|
|-0-0-0-0-6S7-7-7-6-6-6--|-0-0-0-0-0-0-6S7-7-7S9-9-9S6-6-|


  |----3----| |-3-| |-3-|
  S S S S S S E E E E E E Q
|-----------------------------|
|-----------------------------|
|-----------------------------|
|-----------------------------|
|-----------------------------|
|-0-0-0-0-0-0-6S7-7-7S6-6-6---|
|
| |----3----| |-3-| |-3-|
| S S S S S S E E E E E E Q
|-----------------------------|
|-----------------------------|
|-----------------------------|
|-----------------------------|
|-----------------------------|
|-0-0-0-0-0-0-6S7-7-7S6-6-6---|


                          PM--------|
  |----3----| |----3----| |-3-| |-3-|
  S S S S S S S S S S S S E E E E E E
|-------------------------------------|
|-------------------------------------|
|-------------------------------------|
|-------------------------------------|
|-------------------------------2-----|
|-0-0-0-0-0-0-1-1-1-1-1-1-4-1-0---4-1-|
|
|                         PM--------|
| |----3----| |----3----| |-3-| |-3-|
| S S S S S S S S S S S S E E E E E E
|-------------------------------------|
|-------------------------------------|
|-------------------------------------|
|-------------------------------------|
|-------------------------------2-----|
|-0-0-0-0-0-0-1-1-1-1-1-1-4-1-0---4-1-|


  |----3----| |-3-| |-3-|      |----3----| |-3-| |-3-| |-3-|
  S S S S S S E E E E E E Q    S S S S S S E E E E E E E E E
|----------------------------|----------------------------------|
|----------------------------|----------------------------------|
|----------------------------|----------------------------------|
|----------------------------|----------------------------------|
|----------------------------|----------------------------------|
|-0-0-0-0-0-0-6S7-7-7-6-6-6--|-0-0-0-0-0-0-6S7-7-7S9-9-9S6-6----|
|
| |----3----| |-3-| |-3-|      |----3----| |-3-| |-3-| |-3-|
| S S S S S S E E E E E E Q    S S S S S S E E E E E E E E E
|----------------------------|----------------------------------|
|----------------------------|----------------------------------|
|----------------------------|----------------------------------|
|----------------------------|----------------------------------|
|----------------------------|----------------------------------|
|-0-0-0-0-0-0-6S7-7-7-6-6-6--|-0-0-0-0-0-0-6S7-7-7S9-9-9S6-6----|


                                  PM--------------|
  |----3----| |-3-| |-3-|         |-3-| |-3-| |-3-|
  S S S S S S E E E E E E Q    Q  E E E E E E E E E
|----------------------------|-------------------------|
|----------------------------|-------------------------|
|----------------------------|-------------------------|
|----------------------------|--------------3----------|
|----------------------------|-3--2-----5-2---2-5------|
|-0-0-0-0-0-0-6S7-7-7S6-6-6--|-1----4-1-----------4----|
|
|                                 PM--------------|
| |----3----| |-3-| |-3-|         |-3-| |-3-| |-3-|
| S S S S S S E E E E E E Q    Q  E E E E E E E E E
|----------------------------|-------------------------|
|----------------------------|-------------------------|
|----------------------------|-------------------------|
|----------------------------|--------------3----------|
|----------------------------|-3--2-----5-2---2-5------|
|-0-0-0-0-0-0-6S7-7-7S6-6-6--|-1----4-1-----------4----|


    |-3-| |-3-|    |----3----|
  E S S S E E E Q  S S S S S S
|------------------------------|
|------------------------------|
|------------------------------|
|------------------------------|
|-2-------6S7-7-7--------------|
|-0-0-0-0----------0-0-0-0-0-0-|
|
|   |-3-| |-3-|    |----3----|
| E S S S E E E Q  S S S S S S
|------------------------------|
|------------------------------|
|------------------------------|
|------------------------------|
|-2-------6S7-7-7--------------|
|-0-0-0-0----------0-0-0-0-0-0-|


  |-3-| |-3-| |--3--|  |-3-|   |----3----| |-3-|
  E E E E E E E  E  E  E E E   S S S S S S E E E Q
|----------------------------|-----------------------|
|----------------------------|-----------------------|
|----------------------------|-----------------------|
|----------------------------|-----------------------|
|-6S7-7-7S9-9-9S10-10-10S6-6-|-------------6S7-7-7---|
|----------------------------|-0-0-0-0-0-0-----------|
|
| |-3-| |-3-| |--3--|  |-3-|   |----3----| |-3-|
| E E E E E E E  E  E  E E E   S S S S S S E E E Q
|----------------------------|-----------------------|
|----------------------------|-----------------------|
|----------------------------|-----------------------|
|----------------------------|-----------------------|
|-6S7-7-7S9-9-9S10-10-10S6-6-|-------------6S7-7-7---|
|----------------------------|-0-0-0-0-0-0-----------|


  |----3----| |-3-| |-3-| |-3-|   |-3-| |-3-| |-3-|
  S S S S S S E E E E E E E E E   E E E E E E E E E Q
|-------------------------------|----------------------|
|-------------------------------|----------------------|
|-------------------------------|----------------------|
|-------------------------------|----------------------|
|-------------6S7-7-7-7-7-7-6-6-|-6-6-6-6-----6S7-7-7--|
|-0-0-0-0-0-0---------7-7-7-6-6-|-6-6-6-6-0-0----------|
|
| |----3----| |-3-| |-3-| |-3-|   |-3-| |-3-| |-3-|
| S S S S S S E E E E E E E E E   E E E E E E E E E Q
|-------------------------------|----------------------|
|-------------------------------|----------------------|
|-------------------------------|----------------------|
|-------------------------------|----------------------|
|-------------6S7-7-7-7-7-7-6-6-|-6-6-6-6-----6S7-7-7--|
|-0-0-0-0-0-0---------7-7-7-6-6-|-6-6-6-6-0-0----------|


  |----3----|  |-3-| |-3-| |--3--|    |--3--|
  S S S S S S  E E E E E E E  E  E    E  E  E q
|----------------------------------|--------------|
|----------------------------------|--------------|
|----------------------------------|--------------|
|----------------------------------|--------------|
|-------------10S9-9-7-7S9-9S10-10S|=12-12S13-----|
|-0-0-0-0-0-0----------------------|----------0---|
|
| |----3----|  |-3-| |-3-| |--3--|    |--3--|
| S S S S S S  E E E E E E E  E  E    E  E  E q
|----------------------------------|--------------|
|----------------------------------|--------------|
|----------------------------------|--------------|
|----------------------------------|--------------|
|-------------10S9-9-7-7S9-9S10-10S|=12-12S13-----|
|-0-0-0-0-0-0----------------------|----------0---|


  |-3-|    |----------3----------|   |-3-| |-3-| |--3--| |----3----|
  E E E Q  S S S S S S S S S S S S   E E E E E E E  E  E S S S S S S
|----------------------------------|---------------------------------|
|----------------------------------|---------------------------------|
|----------------------------------|---------------------------------|
|-8-8-8-8--------------------------|-8-8-8-8-7-7-7-10-10-------------|
|----------------------------------|---------------------------------|
|----------0-0-0-0-0-0-0-0-0-0-0-0-|---------------------0-0-0-0-0-0-|
|
| |-3-|    |----------3----------|   |-3-| |-3-| |--3--| |----3----|
| E E E Q  S S S S S S S S S S S S   E E E E E E E  E  E S S S S S S
|----------------------------------|---------------------------------|
|----------------------------------|---------------------------------|
|----------------------------------|---------------------------------|
|-8-8-8-8--------------------------|-8-8-8-8-7-7-7-10-10-------------|
|----------------------------------|---------------------------------|
|----------0-0-0-0-0-0-0-0-0-0-0-0-|---------------------0-0-0-0-0-0-|


   |--3--|     |----------3----------|
   E  E  E  Q  S S S S S S S S S S S S
|-----------------------------------------|
|-----------------------------------------|
|-----------------------------------------|
|-11-11-11-11-----------------------------|
|-----------------------------------------|
|--------------0-0-0-0-0-0-0-0-0-0-0-0----|
|
|  |--3--|     |----------3----------|
|  E  E  E  Q  S S S S S S S S S S S S
|-----------------------------------------|
|-----------------------------------------|
|-----------------------------------------|
|-11-11-11-11-----------------------------|
|-----------------------------------------|
|--------------0-0-0-0-0-0-0-0-0-0-0-0----|


   |--3--|  |--3--|  |-3-| |----3----|
   E  E  E  E  E  E  E E E S S S S S S
|--------------------------------------|
|--------------------------------------|
|--------------------------------------|
|-11-11-11-11-10-10-10-6-6-------------|
|-13-13-13-13-12-12-12-8-8-------------|
|--------------------------0-0-0-0-0-0-|
|
|  |--3--|  |--3--|  |-3-| |----3----|
|  E  E  E  E  E  E  E E E S S S S S S
|--------------------------------------|
|--------------------------------------|
|--------------------------------------|
|-11-11-11-11-10-10-10-6-6-------------|
|-13-13-13-13-12-12-12-8-8-------------|
|--------------------------0-0-0-0-0-0-|


  |-3-|    |----------3----------|   |-3-| |-3-| |-3-|
  E E E Q  S S S S S S S S S S S S   E E E E E E E E E
|----------------------------------|--------------------|
|----------------------------------|--------------------|
|----------------------------------|--------------------|
|-8-8-8-8--------------------------|-8-8-8-8-7-7-7------|
|----------------------------------|--------------------|
|----------0-0-0-0-0-0-0-0-0-0-0-0-|---------------0-0--|
|
| |-3-|    |----------3----------|   |-3-| |-3-| |-3-|
| E E E Q  S S S S S S S S S S S S   E E E E E E E E E
|----------------------------------|--------------------|
|----------------------------------|--------------------|
|----------------------------------|--------------------|
|-8-8-8-8--------------------------|-8-8-8-8-7-7-7------|
|----------------------------------|--------------------|
|----------0-0-0-0-0-0-0-0-0-0-0-0-|---------------0-0--|


                                                      <
          |-3-|   |-3-|           |-3-|   |-3-|
  E E E E S S S E S S S E   E E E S S S E S S S E E   W
|-------------------------|-------------------------|------|
|-------------------------|-------------------------|------|
|-------------------------|-------------------------|------|
|-5---4---------3-------4-|-------------5-------6---|-2----|
|-4---3---------2-------3-|---6---------4-------5---|-2----|
|-3---2---0-0-0-1-0-0-0-2-|---4---0-0-0-3-0-0-0-4---|-0----|
|
|                                                     <
|         |-3-|   |-3-|           |-3-|   |-3-|
| E E E E S S S E S S S E   E E E S S S E S S S E E   W
|-------------------------|-------------------------|------|
|-------------------------|-------------------------|------|
|-------------------------|-------------------------|------|
|-5---4---------3-------4-|-------------5-------6---|-2----|
|-4---3---------2-------3-|---6---------4-------5---|-2----|
|-3---2---0-0-0-1-0-0-0-2-|---4---0-0-0-3-0-0-0-4---|-0----|


    Q=130
   3/4
    |-3-| |-3-|   |-3-| |-3-|
    S S S S S S E S S S S S S E
||------------------------------|
||o-----------------------------|
||------------------------------|
||--------------5-------------5-|
||o-------------4-------------4-|
||--4-4-4-3-3-3-3-2-2-2-3-3-3-3-|
|
|   |-3-| |-3-|   |-3-| |-3-|
|   S S S S S S E S S S S S S E
||------------------------------|
||o-----------------------------|
||------------------------------|
||--------------5-------------5-|
||o-------------4-------------4-|
||--4-4-4-3-3-3-3-2-2-2-3-3-3-3-|


  |-3-| |-3-| |-3-|   |-3-|       |-3-| |-3-|
  S S S S S S S S S E S S S E     S S S S S S E Q.
|------------------------------||------------------------|
|-----------------------------o||------------------------|
|-------------------4-------5--||------------------------|
|-------------------3-------4--||-------------5----------|
|-------------------2-------3-o||-------------4----------|
|-3-3-3-2-2-2-1-1-1---2-2-2----||-4-4-4-3-3-3-3----------|
|
| |-3-| |-3-| |-3-|   |-3-|       |-3-| |-3-|
| S S S S S S S S S E S S S E     S S S S S S E    Q.
|------------------------------||------------------------|
|-----------------------------o||------------------------|
|-------------------4-------5--||------------------------|
|-------------------3-------4--||-------------5----------|
|-------------------2-------3-o||-------------4----------|
|-3-3-3-2-2-2-1-1-1---2-2-2----||-4-4-4-3-3-3-3----------|


    |-3-| |-3-|   |-3-| |-3-|     |-3-| |-3-| |-3-|   |-3-|
    S S S S S S E S S S S S S E   S S S S S S S S S E S S S E  3x
||------------------------------|------------------------------||
||o-----------------------------|-----------------------------o||
||------------------------------|-------------------4-------5--||
||--------------5-------------5-|-------------------3-------4--||
||o-------------4-------------4-|-------------------2-------3-o||
||--4-4-4-3-3-3-3-2-2-2-3-3-3-3-|-3-3-3-2-2-2-1-1-1---2-2-2----||
|
|   |-3-| |-3-|   |-3-| |-3-|     |-3-| |-3-| |-3-|   |-3-|
|   S S S S S S E S S S S S S E   S S S S S S S S S E S S S E  3x
||------------------------------|------------------------------||
||o-----------------------------|-----------------------------o||
||------------------------------|-------------------4-------5--||
||--------------5-------------5-|-------------------3-------4--||
||o-------------4-------------4-|-------------------2-------3-o||
||--4-4-4-3-3-3-3-2-2-2-3-3-3-3-|-3-3-3-2-2-2-1-1-1---2-2-2----||


                                                ~~~
  |-3-| |-3-|   |-3-| |-3-|     |-3-| |-3-|
  S S S S S S E S S S S S S E   S S S S S S Q   Q
|-----------------------------|-----------------------|
|-----------------------------|-----------------------|
|-----------------------------|-----------------------|
|-------------5-------------5-|-----------------------|
|-------------4-------------4-|-------------3---------|
|-4-4-4-3-3-3-3-2-2-2-3-3-3-3-|-3-3-3-2-2-2-1--[2]----|
|
|                                               ~~~
| |-3-| |-3-|   |-3-| |-3-|     |-3-| |-3-|
| S S S S S S E S S S S S S E   S S S S S S Q   Q
|-----------------------------|-----------------------|
|-----------------------------|-----------------------|
|-----------------------------|-----------------------|
|-------------5-------------5-|-----------------------|
|-------------4-------------4-|-------------3---------|
|-4-4-4-3-3-3-3-2-2-2-3-3-3-3-|-3-3-3-2-2-2-1--[2]----|


   4/4
    |-3-| |-3-| |-3-| |-3-| |-3-| |-3-| |-3-| |-3-|
    S S S S S S S S S S S S S S S S S S S S S S S S
||--------------------------------------------------|
||o-------------------------------------------------|
||--------------------------------------------------|
||--------------------------------------------------|
||o-------------------------4-4-4-------4-4-4-------|
||--6-6-6-3-3-3-6-6-6-3-3-3-------3-3-3-------3-3-3-|
|
|   |-3-| |-3-| |-3-| |-3-| |-3-| |-3-| |-3-| |-3-|
|   S S S S S S S S S S S S S S S S S S S S S S S S
||--------------------------------------------------|
||o-------------------------------------------------|
||--------------------------------------------------|
||--------------------------------------------------|
||o-------------------------4-4-4-------4-4-4-------|
||--6-6-6-3-3-3-6-6-6-3-3-3-------3-3-3-------3-3-3-|


  |-3-| |-3-| |-3-| |-3-| |-3-| |-3-| |-3-| |-3-|
  S S S S S S S S S S S S S S S S S S S S S S S S
|-----------------------------------------------------||
|----------------------------------------------------o||
|-----------------------------------------------------||
|-----------------------------------------------------||
|-------------------------4-4-4-------4-4-4----------o||
|-6-6-6-3-3-3-6-6-6-3-3-3-------3-3-3-------3-3-3-----||
|
| |-3-| |-3-| |-3-| |-3-| |-3-| |-3-| |-3-| |-3-|
| S S S S S S S S S S S S S S S S S S S S S S S S
|-----------------------------------------------------||
|----------------------------------------------------o||
|-----------------------------------------------------||
|-----------------------------------------------------||
|-------------------------4-4-4-------4-4-4----------o||
|-6-6-6-3-3-3-6-6-6-3-3-3-------3-3-3-------3-3-3-----||


                 |-3-| |-3-| |-3-| |-3-| |-3-| |-3-| |-3-| |-3-|
  H    Q  Q      S S S S S S S S S S S S S S S S S S S S S S S S
|------------||---------------------------------------------------||
|------------||o-------------------------------------------------o||
|------------||---------------------------------------------------||
|-5----4-----||---------------------------------------------------||
|-2----2--4--||o-------------------------4-4-4-------4-4-4-------o||
|-2----2--2--||--6-6-6-3-3-3-6-6-6-3-3-3-------3-3-3-------3-3-3--||
|
|                |-3-| |-3-| |-3-| |-3-| |-3-| |-3-| |-3-| |-3-|
| H    Q  Q      S S S S S S S S S S S S S S S S S S S S S S S S
|------------||---------------------------------------------------||
|------------||o-------------------------------------------------o||
|------------||---------------------------------------------------||
|-5----4-----||---------------------------------------------------||
|-2----2--4--||o-------------------------4-4-4-------4-4-4-------o||
|-2----2--2--||--6-6-6-3-3-3-6-6-6-3-3-3-------3-3-3-------3-3-3--||


  H    Q  Q
|--------------|
|--------------|
|--------------|
|-5----4-------|
|-2----2--4----|
|-2----2--2----|
|
| H    Q  Q
|--------------|
|--------------|
|--------------|
|-5----4-------|
|-2----2--4----|
|-2----2--2----|


   4/4
    |-3-| |-3-| |-3-| |-3-| |-3-| |-3-| |-3-| |-3-|
    S S S S S S S S S S S S S S S S S S S S S S S S
||--------------------------------------------------|
||o-------------------------------------------------|
||--------------------------------------------------|
||--------------------------------------------------|
||o-------------------------4-4-4-------4-4-4-------|
||--6-6-6-3-3-3-6-6-6-3-3-3-------3-3-3-------3-3-3-|
|
|   |-3-| |-3-| |-3-| |-3-| |-3-| |-3-| |-3-| |-3-|
|   S S S S S S S S S S S S S S S S S S S S S S S S
||--------------------------------------------------|
||o-------------------------------------------------|
||--------------------------------------------------|
||--------------------------------------------------|
||o-------------------------4-4-4-------4-4-4-------|
||--6-6-6-3-3-3-6-6-6-3-3-3-------3-3-3-------3-3-3-|


  |-3-| |-3-| |-3-| |-3-| |-3-| |-3-| |-3-| |-3-|
  S S S S S S S S S S S S S S S S S S S S S S S S
|-----------------------------------------------------||
|----------------------------------------------------o||
|-----------------------------------------------------||
|-----------------------------------------------------||
|-------------------------4-4-4-------4-4-4----------o||
|-6-6-6-3-3-3-6-6-6-3-3-3-------3-3-3-------3-3-3-----||
|
| |-3-| |-3-| |-3-| |-3-| |-3-| |-3-| |-3-| |-3-|
| S S S S S S S S S S S S S S S S S S S S S S S S
|-----------------------------------------------------||
|----------------------------------------------------o||
|-----------------------------------------------------||
|-----------------------------------------------------||
|-------------------------4-4-4-------4-4-4----------o||
|-6-6-6-3-3-3-6-6-6-3-3-3-------3-3-3-------3-3-3-----||


                 |-3-| |-3-| |-3-| |-3-| |-3-| |-3-| |-3-| |-3-|
  H    Q  Q      S S S S S S S S S S S S S S S S S S S S S S S S
|------------||---------------------------------------------------||
|------------||o-------------------------------------------------o||
|------------||---------------------------------------------------||
|-5----4-----||---------------------------------------------------||
|-2----2--4--||o-------------------------4-4-4-------4-4-4-------o||
|-2----2--2--||--6-6-6-3-3-3-6-6-6-3-3-3-------3-3-3-------3-3-3--||
|
|                |-3-| |-3-| |-3-| |-3-| |-3-| |-3-| |-3-| |-3-|
| H    Q  Q      S S S S S S S S S S S S S S S S S S S S S S S S
|------------||---------------------------------------------------||
|------------||o-------------------------------------------------o||
|------------||---------------------------------------------------||
|-5----4-----||---------------------------------------------------||
|-2----2--4--||o-------------------------4-4-4-------4-4-4-------o||
|-2----2--2--||--6-6-6-3-3-3-6-6-6-3-3-3-------3-3-3-------3-3-3--||


  H    H      H    Q.   e   W          +W           +H
|-----------|-------------|----------|------------|--------|
|-----------|-------------|----------|------------|--------|
|-----------|-------------|----------|------------|--------|
|-5----4----|-4----3------|----------|------------|--------|
|-2----2----|-1----1----3-|-4--------|-(4)--------|-(4)----|
|-2----2----|-1----1----1-|-2--------|-(2)--------|-(2)----|
|
| H    H      H    Q.   e   W          +W           +H
|-----------|-------------|----------|------------|--------|
|-----------|-------------|----------|------------|--------|
|-----------|-------------|----------|------------|--------|
|-5----4----|-4----3------|----------|------------|--------|
|-2----2----|-1----1----3-|-4--------|-(4)--------|-(4)----|
|-2----2----|-1----1----1-|-2--------|-(2)--------|-(2)----|


    Q=140
    PM------------|                   PM----------------------------|
                    |-3-|   |-3-|                     |-3-|   |-3---|
    S S S S S S S S S S S E S S S E   S S S S S S S S S S S E S S S E
||----------------------------------|-----------------------------------||
||o---------------------------------|----------------------------------o||
||----------------------------------|-----------------------------------||
||----------------------------------|-----------------------------------||
||o-----------------4-4-4---4-4-4---|-----------------4-4-4---4-4-4----o||
||--6-3-0-3-6-3-0-3-------3-------3-|-6-3-0-3-6-3-0-3-------3-------3---||
|
|   PM------------|                   PM----------------------------|
|                   |-3-|   |-3-|                     |-3-|   |-3---|
|   S S S S S S S S S S S E S S S E   S S S S S S S S S S S E S S S E
||----------------------------------|-----------------------------------||
||o---------------------------------|----------------------------------o||
||----------------------------------|-----------------------------------||
||----------------------------------|-----------------------------------||
||o-----------------4-4-4---4-4-4---|-----------------4-4-4---4-4-4----o||
||--6-3-0-3-6-3-0-3-------3-------3-|-6-3-0-3-6-3-0-3-------3-------3---||


                PM----------------------------|
                                |-3-|   |-3---|
  Q  Q  Q  Q    S S S S S S S S S S S E S S S E
|-------------|---------------------------------|
|-------------|---------------------------------|
|-------------|---------------------------------|
|-5--4--4--3--|---------------------------------|
|-2--2--4--3--|-----------------4-4-4---4-4-4---|
|-2--2--2--1--|-6-3-0-3-6-3-0-3-------3-------3-|
|
|               PM----------------------------|
|                               |-3-|   |-3---|
| Q  Q  Q  Q    S S S S S S S S S S S E S S S E
|-------------|---------------------------------|
|-------------|---------------------------------|
|-------------|---------------------------------|
|-5--4--4--3--|---------------------------------|
|-2--2--4--3--|-----------------4-4-4---4-4-4---|
|-2--2--2--1--|-6-3-0-3-6-3-0-3-------3-------3-|


  PM----------------------------|
                  |-3-|   |-3---|
  S S S S S S S S S S S E S S S E   Q  Q  Q  Q
|---------------------------------|---------------|
|---------------------------------|---------------|
|---------------------------------|---------------|
|---------------------------------|-5--4--4--3----|
|-----------------4-4-4---4-4-4---|-2--2--4--3----|
|-6-3-0-3-6-3-0-3-------3-------3-|-2--2--2--1----|
|
| PM----------------------------|
|                 |-3-|   |-3---|
| S S S S S S S S S S S E S S S E   Q  Q  Q  Q
|---------------------------------|---------------|
|---------------------------------|---------------|
|---------------------------------|---------------|
|---------------------------------|-5--4--4--3----|
|-----------------4-4-4---4-4-4---|-2--2--4--3----|
|-6-3-0-3-6-3-0-3-------3-------3-|-2--2--2--1----|


    PM------------|                   PM----------------------------|
                    |-3-|   |-3-|                     |-3-|   |-3---|
    S S S S S S S S S S S E S S S E   S S S S S S S S S S S E S S S E
||----------------------------------|-----------------------------------||
||o---------------------------------|----------------------------------o||
||----------------------------------|-----------------------------------||
||----------------------------------|-----------------------------------||
||o-----------------4-4-4---4-4-4---|-----------------4-4-4---4-4-4----o||
||--6-3-0-3-6-3-0-3-------3-------3-|-6-3-0-3-6-3-0-3-------3-------3---||
|
|   PM------------|                   PM----------------------------|
|                   |-3-|   |-3-|                     |-3-|   |-3---|
|   S S S S S S S S S S S E S S S E   S S S S S S S S S S S E S S S E
||----------------------------------|-----------------------------------||
||o---------------------------------|----------------------------------o||
||----------------------------------|-----------------------------------||
||----------------------------------|-----------------------------------||
||o-----------------4-4-4---4-4-4---|-----------------4-4-4---4-4-4----o||
||--6-3-0-3-6-3-0-3-------3-------3-|-6-3-0-3-6-3-0-3-------3-------3---||


                PM----------------------------|
                                |-3-|   |-3---|
  Q  Q  Q  Q    S S S S S S S S S S S E S S S E
|-------------|---------------------------------|
|-------------|---------------------------------|
|-------------|---------------------------------|
|-5--4--4--3--|---------------------------------|
|-2--2--4--3--|-----------------4-4-4---4-4-4---|
|-2--2--2--1--|-6-3-0-3-6-3-0-3-------3-------3-|
|
|               PM----------------------------|
|                               |-3-|   |-3---|
| Q  Q  Q  Q    S S S S S S S S S S S E S S S E
|-------------|---------------------------------|
|-------------|---------------------------------|
|-------------|---------------------------------|
|-5--4--4--3--|---------------------------------|
|-2--2--4--3--|-----------------4-4-4---4-4-4---|
|-2--2--2--1--|-6-3-0-3-6-3-0-3-------3-------3-|


  PM----------------------------|
                  |-3-|   |-3---|
  S S S S S S S S S S S E S S S E
|-----------------------------------|
|-----------------------------------|
|-----------------------------------|
|-----------------------------------|
|-----------------4-4-4---4-4-4-----|
|-6-3-0-3-6-3-0-3-------3-------3---|
|
| PM----------------------------|
|                 |-3-|   |-3---|
| S S S S S S S S S S S E S S S E
|-----------------------------------|
|-----------------------------------|
|-----------------------------------|
|-----------------------------------|
|-----------------4-4-4---4-4-4-----|
|-6-3-0-3-6-3-0-3-------3-------3---|


 1/4   4/4
        |-3-|    |----------3----------|
  E E   E E E Q  S S S S S S S S S S S S
|-----|----------------------------------|
|-----|----------------------------------|
|-----|----------------------------------|
|-----|-8-8-8-8--------------------------|
|-2---|----------------------------------|
|-0---|----------0-0-0-0-0-0-0-0-0-0-0-0-|
|
|       |-3-|    |----------3----------|
| E E   E E E Q  S S S S S S S S S S S S
|-----|----------------------------------|
|-----|----------------------------------|
|-----|----------------------------------|
|-----|-8-8-8-8--------------------------|
|-2---|----------------------------------|
|-0---|----------0-0-0-0-0-0-0-0-0-0-0-0-|


  |-3-| |-3-| |--3--| |----3----|    |--3--|     |----------3----------|
  E E E E E E E  E  E S S S S S S    E  E  E  Q  S S S S S S S S S S S S
|---------------------------------|----------------------------------------|
|---------------------------------|----------------------------------------|
|---------------------------------|----------------------------------------|
|-8-8-8-8-7-7-7-10-10-------------|-11-11-11-11----------------------------|
|---------------------------------|----------------------------------------|
|---------------------0-0-0-0-0-0-|--------------0-0-0-0-0-0-0-0-0-0-0-0---|
|
| |-3-| |-3-| |--3--| |----3----|    |--3--|     |----------3----------|
| E E E E E E E  E  E S S S S S S    E  E  E  Q  S S S S S S S S S S S S
|---------------------------------|----------------------------------------|
|---------------------------------|----------------------------------------|
|---------------------------------|----------------------------------------|
|-8-8-8-8-7-7-7-10-10-------------|-11-11-11-11----------------------------|
|---------------------------------|----------------------------------------|
|---------------------0-0-0-0-0-0-|--------------0-0-0-0-0-0-0-0-0-0-0-0---|


   |--3--|  |--3--|  |-3-| |----3----|
   E  E  E  E  E  E  E E E S S S S S S
|--------------------------------------|
|--------------------------------------|
|--------------------------------------|
|-11-11-11-11-10-10-10-6-6-------------|
|-13-13-13-13-12-12-12-8-8-------------|
|--------------------------0-0-0-0-0-0-|
|
|  |--3--|  |--3--|  |-3-| |----3----|
|  E  E  E  E  E  E  E E E S S S S S S
|--------------------------------------|
|--------------------------------------|
|--------------------------------------|
|-11-11-11-11-10-10-10-6-6-------------|
|-13-13-13-13-12-12-12-8-8-------------|
|--------------------------0-0-0-0-0-0-|


  |-3-|    |----------3----------|   |-3-| |-3-| |--3--|
  E E E Q  S S S S S S S S S S S S   E E E E E E E  E  E
|----------------------------------|----------------------|
|----------------------------------|----------------------|
|----------------------------------|----------------------|
|-8-8-8-8--------------------------|-8-8-8-8-7-7-7-10-10--|
|----------------------------------|----------------------|
|----------0-0-0-0-0-0-0-0-0-0-0-0-|----------------------|
|
| |-3-|    |----------3----------|   |-3-| |-3-| |--3--|
| E E E Q  S S S S S S S S S S S S   E E E E E E E  E  E
|----------------------------------|----------------------|
|----------------------------------|----------------------|
|----------------------------------|-6-6-6-6-5-5-5--8--8--|
|-8-8-8-8--------------------------|----------------------|
|----------------------------------|----------------------|
|----------0-0-0-0-0-0-0-0-0-0-0-0-|----------------------|


  |----3----|  |--3--|     |----3----|   |----3----| |----3----|
  S S S S S S  E  E  E  Q  S S S S S S   S S S S S S S S S S S S Q  E E
|--------------------------------------|---------------------------------|
|--------------------------------------|---------------------------------|
|--------------------------------------|---------------------------------|
|-------------11-11-11-11--------------|---------------------------------|
|--------------------------------------|-8-8-8-8-8-8-7-7-7-7-7-7-7--6-5--|
|-0-0-0-0-0-0--------------0-0-0-0-0-0-|-------------------------5--4-3--|
|
| |----3----|  |--3--|     |----3----|   |----3----| |----3----|
| S S S S S S  E  E  E  Q  S S S S S S   S S S S S S S S S S S S Q  E E
|--------------------------------------|---------------------------------|
|--------------------------------------|---------------------------------|
|--------------9--9--9--9--------------|---------------------------------|
|--------------------------------------|---------------------------------|
|--------------------------------------|-8-8-8-8-8-8-7-7-7-7-7-7-7--6-5--|
|-0-0-0-0-0-0--------------0-0-0-0-0-0-|-------------------------5--4-3--|


  W
|------|
|------|
|------|
|------|
|------|
|------|
|
|------|
|------|
|------|
|------|
|------|
|------|


Duration Legend
---------------
W - whole; H - half; Q - quarter; E - 8th; S - 16th; T - 32nd; X - 64th; a - acciaccatura
+ - note tied to previous; . - note dotted; .. - note double dotted
Uncapitalized letters represent notes that are staccato (1/2 duration)
Irregular groupings are notated above the duration line
Duration letters will always appear directly above the note/fret number it represents the
duration for.  Duration letters with no fret number below them represent rests.  Multi-
bar rests are notated in the form Wxn, where n is the number of bars to rest for.  Low
melody durations appear below the staff

Tablature Legend
----------------
 h   - hammer-on
 p   - pull-off
 b   - bend
 pb  - pre-bend
 r   - bend release (if no number after the r, then release immediately)
 /\  - slide into or out of (from/to "nowhere")
 s   - legato slide
 S   - shift slide
  - natural harmonic
[n]  - artificial harmonic
n(n) - tapped harmonic
 ~   - vibrato
 tr  - trill
 T   - tap
 TP  - trem. picking
 PM  - palm muting
\n/  - tremolo bar dip; n = amount to dip
 \n  - tremolo bar down
 n/  - tremolo bar up
/n\  - tremolo bar inverted dip
 =   - hold bend; also acts as connecting device for hammers/pulls
 <>  - volume swell (louder/softer)
 x   - on rhythm slash represents muted slash
 o   - on rhythm slash represents single note slash

Misc Legend
-----------
 |  - bar
||  - double bar
||o - repeat start
o|| - repeat end
*|  - double bar (ending)
 :  - bar (freetime)
 $  - Segno
 &  - Coda
Tempo markers -  = BPM(8/16=s8/s16), where s8 = swing 8ths, s16 = swing 16ths


***************************************************************************************
* Generated using Power Tab Editor by Brad Larsen - this song was copied from   
fromhttp://powertab.guitarnetwork.org *
***************************************************************************************
Tap to rate this tab
 
# A B C D E F G H I J K L M N O P Q R S T U V W X Y Z