Song name
# A B C D E F G H I J K L M N O P Q R S T U V W X Y Z

Decay - Rescue Me tab

I've been searching all over for the tabs of this song and they were no good ones so I 
to make my own.
This tab does not fully cover both guitars but this is as much as I can get for now.
Will update if I get anything more. Hope this helps.

Song : Rescue Me
Tabbed by : Ariff Suffian
Tuning : Standard

Intro
e---------------------------------------------------------------------|
B---------------------------------------------------------------------|
G---------------------------------------------------------------------|
D-999999999999999999-777777-444444-555555-999999-777777-444444-555555-|
A-999999999999999999-777777-444444-555555-999999-777777-444444-555555-|
E-777777777777777777-555555-222222-333333-777777-555555-222222-333333-|

e----------------|
B----------------|
G----------------|  (x2)
D--9--7--4--5----|
A--9--7--4--5----|
E--7--5--2--3----|

Verse 1
e-------------------------------------------|
B-------------------------------------------|
G-------------------------------------------| (x4 Palm Mute)
D-------------------------------------------|
A-99999999-7777777--44444444-55555555-------|
E-77777777-55555555-22222222-33333333-------|

Chorus 1
e-------------------------------------------------------|
B-------------------------------------------------------|
G--777777777777-----------------------------------------|
D--777777777777-777777777777-999999999999-55555555555---|
A--555555555555-777777777777-999999999999-555555555555--|
E---------------555555555555-777777777777-333333333333--|

Verse 2
e-------------------------------------------|
B-------------------------------------------|
G-------------------------------------------| (x4 Palm Mute)
D-------------------------------------------|
A-99999999-7777777--44444444-55555555-------|
E-77777777-55555555-22222222-33333333-------|

Chorus 2
e-------------------------------------------------------|
B-------------------------------------------------------|
G--777777777777-----------------------------------------| (x2)
D--777777777777-777777777777-999999999999-55555555555---|
A--555555555555-777777777777-999999999999-555555555555--|
E---------------555555555555-777777777777-333333333333--|

Bridge
e-------------------------------------------|
B-------------------------------------------|
G-------------------------------------------| Palm Mute
D-------------------------------------------|
A-99999999-7777777--44444444-55555555-------|
E-77777777-55555555-22222222-33333333-------|

Solo
(Guitar 1)
e--------/15-12--------/17-15----------------------------|
B-/15-14--------/15-14-----------15-14----14-12----------|
G-----------------------------12-------11-------11-12-11-|
D--------------------------------------------------------|
A--------------------------------------------------------|
E--------------------------------------------------------|

e------------------------------------------------------------|
B----15-14----14-12----14-15-/7-5-\2-3-/8-10-8-/12-14-15~~~~~|
G-12-------11-------11---------------------------------------|
D------------------------------------------------------------|
A------------------------------------------------------------|
E------------------------------------------------------------|

(Guitar 2 During Solo)
e---------|
B---------|
G---------| (x6 Strum a little)
D-9-7-4-5-|
A-9-7-4-5-|
E-7-5-2-3-|

Clean Chorus (Update)

Play these chords, it sounds nicer because this part has not much distortion
D, A, Bm, G (x2)

On the last 2 chords for the 2nd repeat, the other guitar will palm mute this
e------------------------------|
B------------------------------|
G------------------------------| (Palm Mute Distortion)
D---999999999999-55555555555---|
A---999999999999-555555555555--|
E---777777777777-333333333333--|

Final chorus
e------------------------------------------------------------|----|
B------------------------------------------------------------|----|
G--777777777777----------------------------------------------|----|
D--777777777777-777777777777-999999999999-55555555555---(x2)-|-5~-|
A--555555555555-777777777777-999999999999-555555555555-------|-5~-|
E---------------555555555555-777777777777-333333333333-------|-3~-|
Tap to rate this tab
 
# A B C D E F G H I J K L M N O P Q R S T U V W X Y Z