Song name
# A B C D E F G H I J K L M N O P Q R S T U V W X Y Z

Decay - Bottom Of Your Heart tab

Written by Chris     

This solo sounds really cool. I came up with it after the song was written. 
It goes really well with it. Enjoy!

| b  bend
| h  hammer-on
| ~  vibrato
| \  slide down
| /  slide up

Tuning:Standard

e|------------------------------------------------------------------------
B|------------------------------------------------------------------------
G|----------12------------------------------------------------------------
D|--14-14-----14-12-14-12-10-12-10-9~----9-10-9----9----------------------
A|----------------------------------------------12---12-10-12-12b(14)\16--
E|------------------------------------------------------------------------

e|------------------------------------------------------------------------
B|------------------------------------------------------------------------
G|-------------------------------9-7--------------------------------------
D|-------------------------9-7-0------------------------------------------
A|--16/--7---------7-7-7-7-----------9b(11)-9b(11)-7----------------------
E|------------------------------------------------------------------------

e|------------------------------------------------------------------------
B|------------------------------------------------------------------------
G|------------------------------------------------------------------------
D|--------5-7-5-------5-7----------5-7-5----------------------------------
A|---7-9--------9-7-9---------7-9--------9-7b(9)--------------------------
E|------------------------------------------------------------------------
Tap to rate this tab
# A B C D E F G H I J K L M N O P Q R S T U V W X Y Z