Song name
# A B C D E F G H I J K L M N O P Q R S T U V W X Y Z

December Avenue - Sleep Tonight tab

Intro: D/F#-G-Bm-A
Clean
e---------------17--------------------|--------------17-------------------|
B------14h15p14---15-14-15p14---------|-----14h15p14----15-14-15p14--17---|
G---14-------------------------16--14-|--14-------------------------------|2X
D-------------------------------------|-----------------------------------|
A-------------------------------------|-----------------------------------|
E-------------------------------------|-----------------------------------|


Pre Solo: D/F#-G-Bm-A

Clean                                                     Distort
e-14-14-14-14-----------------------------------------|   -------|
B--------------17-17-17-17-15-15-15-15-14-14-14-14----|   -------|
G---14-14-14-14--14-14-14-14-14-14-14-14-14-14-14-14--|2X ---/11-|
D-----------------------------------------------------|   -------|
A-----------------------------------------------------|   ---/9--|
E-----------------------------------------------------|   -------|



Verse: D/F#-G-Bm-A
Pre Chorus: D/F#-G-Bm-A(2x)
            D/F#-G-Gm
Chorus: D-G-Bm-A
Adlib: D/F#-G-Bm-A



~i'll do the solo next time. =D

This is my first tab. Feel free to comment. If there're mistakes, mail me at drei.palomo@yshoo.com
Tap to rate this tab
# A B C D E F G H I J K L M N O P Q R S T U V W X Y Z