Song name
# A B C D E F G H I J K L M N O P Q R S T U V W X Y Z

Decemberadio - Loves Found Me tab

Intro
E-----------------------------------3-3-|
B-----------------------------------3-2-|
G---------------------------------2-0-3-|
D--5--5-4-2--2-2---4--5-4-2----0h2--0-0-| x3
A--0--0-0-0--0-0---0--0-0-0---0-----2---|
E-----------------------------------3---|

Verse
E----33-33-----------3-----|
B-2--22-33-----------3-2-2-|
G-2--33-00--9-8-7-7--0-2-2-|
D-2--00-00--9-8-7-7--0-2-2-| x2
A-0-----22--7-6-5-5--2-0-0-|
E-------33-----------3-----|

Prechorus
E-3----3--------0----0-----------------|
B-2----2--------0----0-----------------|
G-3----3--------1----1-----------------|
D-0----0--------2----2-------------5-7-|
A------------22-2-22-2---7-5---7-------|
E------------00-0-00-0-------8---8-----|

Chorus
E-------3-3---3-3--3-33-3---    -3---3---3-|
B-2-222-3-2---2-2--3-33-2-2-    -3--3-3--2-|
G-2-222-0-3---3-3--0-00-3-2-    -0-0---0-3-|
D-2-222-0-0---0-0--0-00-0-2- x2 -2-------0-|
A-0-000-2----------2-22---0-    -3---------|
E-------3----------3-33-----    -----------|

Bridge
E-3333333333333-2222222----------------------------|
B-4444444444444-1111111---------22---------------2-|
G-------------------------------22---------------2-|
D-------------------------------22---------------2-| x2
A-----------------------0-3-5-3-00-0-3-5-5b6-5-3-0-|
E--------------------------------------------------|

During the second part of the double stops, the bass plays this lick
G-------------|
D---5-7-5-454-|
A--7----------|
E-5-----------|

Bridge Pt 2
E-------------------------3--3--3--3--3--3--3--3--3--3--3--3--3--3--3--3--|
B-2--2--2--2--2--2--2--2--3--3--3--3--3--3--3--3--2--2--2--2--2--2--2--2--|
G-2--2--2--2--2--2--2--2--0--0--0--0--0--0--0--0--3--3--3--3--3--3--3--3--|
D-2--2--2--2--2--2--2--2--0--0--0--0--0--0--0--0--0--0--0--0--0--0--0--0--|
A-0--0--0--0--0--0--0--0--2--2--2--2--2--2--2--2--------------------------|
E-------------------------3--3--3--3--3--3--3--3--------------------------|

E-3333-3333-33-|
B-2222-2222-22-|
G-3333-3333-33-|
D-0000-0000-00-|
A--------------|
E--------------|

I haven't quite got the solo firgured out 100% yet, but the notes played
beneath it are G5 and A5.

Order
Intro
Verse
Prechorus
Chorus
Intro
Verse
Prechorus
Chorus
Intro
Bridge
Bridge pt 2
Solo
Chorus...

Good luck.  Have fun.
Tap to rate this tab
# A B C D E F G H I J K L M N O P Q R S T U V W X Y Z