Decemberadio - Love Found Me tab

Love Found Me - Decemberadio


Intro
E-----------------------------------------3-2-|
B-3--3-3--2--3-3--2---3--3-3--2-----------3-3-|
G-0--0-0--2--2-2--2---0--0-0--2--------2--0-2-|
D-0--0-4--2--4-4--2---0--0-4--2-----------0-0-| x3
A---------0--0-0--0-----------0--0-3h5----2---|
E-----------------------------------------3---|

 
E----2-2--3-----------3--------------|
B-2--3-3--3-----------3--------------|
G-2--2-2--0--9-8-7----0--------------|
D-2--0-0--0--9-8-7----0----2-----2---| x2
A-0-------2--7-6-5----2----0-----0---|
E----2-2--3-----------3---3---3-3----|

Prechorus
E-2----2------------------------------------------|
B-3----3------------------------------------------|
G-2----2--------------------------------------7-5-|
D-0----0---------------------------------5-4------|
A--------------------------------5b6r5-3----------|
E----------0-0--12/--0-0--12/---------------------|


Chorus
E--3--3-2-------------3--3-2--------------|
B--3--3-3---2---3-3---3--3-3---2---3-3----|
G--0--0-2---2---2-2---0--0-2---2---2-2----|
D--0--0-0---2---4-4---0--0-0---2---4-4----|
A--2--2-0---0---0-0---2--2-0---0---0-0----|
E--3--3-2-------------3--3-2--------------|


Bridge I
E-3-3-3-3-3-3-3-3-3-3-3-3-3-----------------------------------|
B-5---5---5---5---4---4---4-4/1-------------------------------|
G-------------------------------------------------------------|
D-----------------------------------------2-2---------------2-| x2
A-------------------------------0-3-5-3-0-0-0-3-5-5b6r5-5-3-0-|
E-------------------------------------------------------------|

Bridge II
E------------------3-3-3-3-3-3-3-3--2-2-2-2-2-2-2-2--|
B-2-2-2-2-2-2-2-2--3-3-3-3-3-3-3-3--3-3-3-3-3-3-3-3--|
G-2-2-2-2-2-2-2-2--0-0-0-0-0-0-0-0--2-2-2-2-2-2-2-2--|
D-2-2-2-2-2-2-2-2--0-0-0-0-0-0-0-0--0-0-0-0-0-0-0-0--|
A-0-0-0-0-0-0-0-0--2-2-2-2-2-2-2-2-------------------|
E------------------3-3-3-3-3-3-3-3--2-2-2-2-2-2-2-2--|

E-2-2-2-2--2-2-2-2--2-2-|
B-3-3-3-3--3-3-3-3--3-3-|
G-2-2-2-2--2-2-2-2--2-2-|
D-0-0-0-0--0-0-0-0--0-0-|
A-----------------------|
E-----------------------|

Solo in Am over chorus
Tap to rate this tab
 
# A B C D E F G H I J K L M N O P Q R S T U V W X Y Z