Decemberadio - Better Man tab

-------------------------------------------------------------------------------
			     Better Man - Decemberadio
-------------------------------------------------------------------------------
Tabbed by:LakesidePraise
Email:

Tuning: Drop-D
Intro

e|---------------------------------------------------------------------------|
B|---------------------------------------------------------------------------|
G|---------------------------------------------------------------------------|
D|---------------------------------------------------------------------------|
A|------------------------------3p0--3--5------------------------------------|
D|---0--0--3p0--0--5p0--0--3p0-----------------------------------------------

e|---------------------------------------------------------------------------|
B|---------------------------------------------------------------------------|
G|---------------------------------------------------------------------------|
D|------------------3----------------------------------3---------------------|
A|------5---3---5---------------------3----5---3---5---------------------5---|
D|-----------------------5---3---5--------------------------3---5---3--------

e|---------------------------------------------------------------------------|
B|---------------------------------------------------------------------------|
G|---------------------------------------------------------------------------|
D|--------------3------------------------------------------------------------|
A|-----3---5-----------------------3---3--3--3---2--2--2---------------------|
D|--------------------5---3---5---------------------------3--3---------------|
Verse
e|---------------------------------------------------------------------------|
B|----3-----3-----3-----3-----6-----6----6----6-----5-----5-----5h6--5-------|
G|-------2-----2-----2-----2-----5-----5----5----5-----5-----5-----------5---|
D|---------------------------------------------------------------------------|
A|---------------------------------------------------------------------------|
D|---------------------------------------------------------------------------|

e|---------------------------------------------------------------------------|
B|----3------3-----3-------3-------------------------------------------------|
G|--------2-----2------2-------2---------------------------------------------|
D|---------------------------------------------------------------------------|
A|---------------------------------------------------------------------------|
E|---------------------------------------------------------------------------|
Bridge
e|---------------------------------------------------------------------------|
B|---------------------------------------------------------------------------|
G|---------------------------------------------------------------------------|
D|---------------------------------------------------------------------------|
A|------------------------------3p0--3--5------------------------------------|
D|---0--0--3p0--0--5p0--0--3p0----------------0--0--3p0--0--5p0--0--3p0------|

e|---------------------------------------------------------------------------|
B|---------------------------------------------------------------------------|
G|---------------------------------------------------------------------------|
D|---------------------------------------------------------------------------|
A|---3p0--3--5---------------------------------3p0--3--5---------------------|
D|------------------0--0--3p0--0--5p0--0--3p0--------------------------------|

e|---------------------------------------------------------------------------|
B|---------------------------------------------------------------------------|
G|---------------------------------------------------------------------------|
D|---------------------------------------------------------------------------|
A|----------------------------3--3--3--3--3--3--5--5--3h5--5--5--5--5-----3h5|
D|----3--3--3--3--3--3--3--3-------------------------------------------0------

e|---------------------------------------------------------------------------|
B|---------------------------------------------------------------------------|
G|---------------------------------------------------------------------------|
D|---------------------------------------------------------------------------|
A|--5--5--5--5---------------------------------------------------------------|
D|--------------0------------------------------------------------------------|

************************************

| /   slide up
| \   slide down
| h   hammer-on
| p   pull-off
| ~   vibrato
| +   harmonic
| x   Mute note
| b   Bend
| pb  Pre-bend
| br  Bend release
| pbr Pre-bend release
| brb Bend release bend

************************************
Tap to rate this tab
 
# A B C D E F G H I J K L M N O P Q R S T U V W X Y Z