Song name
# A B C D E F G H I J K L M N O P Q R S T U V W X Y Z

Decemberadio - Satisfy Me tab

Open G Tuning
6=  D
5=  G
4=  D
3=  G
2=  B
1=  d

Rhythm guitar

Intro

Riff 1

D ---------------------------------------------------------------------||
G ----------------4-h-5---------0----------------------10-9-7--7-7-----||
D --2-h-3-h-5---------------0--------------2-2-p-0-----10-9-7--7-7-----||
G -----------------------------------------0-0-p-0-----10-9-7--7-7-----||
B -----------------------------------------1-1-----------------8-8-p-7-||
d ---------------------------------------------------------------------||

D -------------------------------------------------------------||
G ----------------4-h-5---------0----------------------10-9-7--||
D --2-h-3-h-5---------------0--------------2-2-p-0-----10-9-7--||
G -----------------------------------------0-0-p-0-----10-9-7--||
B -----------------------------------------1-1-----------------||
d -------------------------------------------------------------||

Lick

D -----------------------------------||
G ------------------------3-p-0------||
D -------------3-p-2-p-0-------------||
G --3-p-2-p-0------------------------||
B -----------------------------------||
d -----------------------------------||


Riff 2

D ---------------------------||
G --------33-44-55-66-3-0-0--||
D ----3-5--------------------||
G ---------------------------|| 
B ---------------------------||
d ---------------------------||


Verse:

D --2-3--------------------------------||
G -------3--2--2-h-4--------2-h-4-p-0--||
D -------------------2-p-0-------------||
G -------------------------------------||
B -------------------------------------||
d -------------------------------------||

D --2-3--------------------------------|---------------------------------||
G -------4--2--2-h-4--------4-p-2-h-4--|--4--4---4---4---6---6---6-------||
D -------------------2-p-0-------------|---4--4---4---4---6---6---6------||
G -------------------------------------|----4---4---4---4---6---6---6----||
B -------------------------------------|-----4----5---6---7---6---7---9--||
d -------------------------------------|---------------------------------||

(LEAD LICK)

D --------------------||
G --------------------||
D --------------------||
G --------------8-----||
B --10b11-9-s-7---7---||
d --------------------||


Chorus 

Riff 1

D ---------------------------------------------------------------------||
G ----------------4-h-5---------0----------------------10-9-7--7-7-----||
D --2-h-3-h-5---------------0--------------2-2-p-0-----10-9-7--7-7-----||
G -----------------------------------------0-0-p-0-----10-9-7--7-7-----||
B -----------------------------------------1-1-----------------8-8-p-7-||
d ---------------------------------------------------------------------||

D -------------------------------------------------------------||
G ----------------4-h-5---------0----------------------10-9-7--||
D --2-h-3-h-5---------------0--------------2-2-p-0-----10-9-7--||
G -----------------------------------------0-0-p-0-----10-9-7--||
B -----------------------------------------1-1-----------------||
d -------------------------------------------------------------||

Lick

D -----------------------------------||
G ------------------------3-p-0------||
D -------------3-p-2-p-0-------------||
G --3-p-2-p-0------------------------||
B -----------------------------------||
d -----------------------------------||

RIFF2
VERSE + (lead Lick)
CHORUS

Bridge

D ----------------------------||
G --6----4----5---6----4------||
D --6----4----5---6----4------||
G ----------------------------||
B ----------------------------||
d ----------------------------||

Riff1 

Solo 
(Rhythm riff)
D ----------4-h-6-----------4-h-6----|----------2-h-4-----------2-h-4----||
G --6-4-h-6-------6-6-4-h-6--------6-|--4-2-h-4-------4-4-2-h-4-------4--||
D -----------------------------------|-----------------------------------|| 
G -----------------------------------|-----------------------------------||
B -----------------------------------|-----------------------------------||
d -----------------------------------|-----------------------------------||

D ----------4-h-6-----------4-h-6----|----------2-h-4-----------2-h-4----||
G --6-4-h-6-------6-6-4-h-6--------6-|--4-2-h-4-------4-4-2-h-4-------4--||
D -----------------------------------|-----------------------------------|| 
G -----------------------------------|-----------------------------------||
B -----------------------------------|-----------------------------------||
d -----------------------------------|-----------------------------------||


Riff 1 
Chorus 
Chorus 
End Lick

D -----------------------------------||
G ------------------------3-p-0------||
D -------------3-p-2-p-0-------------||
G --3-p-2-p-0------------------------||
B -----------------------------------||
d -----------------------------------||

(PM)
D -----------------------------------||
G ------------------------3-p-0------||
D -------------3-p-2-p-0-------------||
G --3-p-2-p-0------------------------||
B -----------------------------------||
d -----------------------------------||


************************* Guitar Tab by MarceCruchaga *************************************

Satisfy Me - Cover by MarceCruchaga :  http://www.youtube.com/watch?v=EvlVFedhlUs

More Covers : http://www.youtube.com/user/MarceCruchaga?feature=mhum
Tap to rate this tab
 
# A B C D E F G H I J K L M N O P Q R S T U V W X Y Z