Song name
# A B C D E F G H I J K L M N O P Q R S T U V W X Y Z

Decemberists - The Mariners Revenge Song tab

-------------------------------------------------------0--|
------------------------------------------------------0---|
-------0-1-2-1-1-0--0---0---1-0--------0-1-2-1-1-0---1----|
-0-1-2-------------2--1--2-1---2-0-1-2-------------2------|
----------------------------------------------------------|
----------------------------------------------------------|


-------------------------------------------------0-5--------|
-------1-3-4-3-3-1--1-1---3-1-------1-3-4-3-3-1-2-----------|
-0-2-3-------------3-2-3-2---3-0-2-3-----------3------------|
------------------------------------------------------------|
------------------------------------------------------------|
------------------------------------------------------------|

Pretty easy stuff. It's really easy to hear this solo in the song, so I'm sure it's 
but if anyone knows how any easier fingerings for the second part I'm all ears. I just 
to make sure all parts of this awesome song got covered.

-Timmons

Thanks for checking it out.
Tap to rate this tab
 
# A B C D E F G H I J K L M N O P Q R S T U V W X Y Z