Song name
# A B C D E F G H I J K L M N O P Q R S T U V W X Y Z

Decemberists - I Dont Mind tab

Intro:

|-------0------|-------0-----|-------0-----|-------0------|
|-----2---2----|-----2---2---|-----3---3---|-----0---0----|
|---2-------2--|---2-------2-|---2-------2-|---2-------2--|
|-2------------|-4-----------|-0-----------|-1------------|
|--------------|-------------|-------------|--------------|
|--------------|-------------|-------------|--------------|



Chords:

A     F#m     Dsus2      E



Lyrics:

Last time i saw you, i told you 
im like a rolling stone. 
and our raindrops make that night, 
make that night so blue, 
cause your friends and your parents 
are all against me ,cause im like a rolling stone 
cos' your friends and your parents are... but i dont mind.


Little Riff:

|---------------------------------------------------------------|
|------------2-------------2-------------2-5-3-2-3-2------------|
|--2-2-2-2-4-----2-2-2-2-4-----2-2-2-2-4-------------4----------|
|---------------------------------------------------------------|
|---------------------------------------------------------------|
|---------------------------------------------------------------|


|---------------------------------------------------------------|
|------------2-------------2-------------2----------------------|
|--2-2-2-2-4-----2-2-2-2-4-----2-2-2-2-4---4--------------------|
|---------------------------------------------------------------|
|---------------------------------------------------------------|
|---------------------------------------------------------------|

enjoooy beibiis!!
Fishengender.
xxx
Tap to rate this tab
# A B C D E F G H I J K L M N O P Q R S T U V W X Y Z