Song name
# A B C D E F G H I J K L M N O P Q R S T U V W X Y Z

Decemberists - The Rakes Song tab

Artist: The Decemberists
Track: The Rake's Song
Album: The Hazards Of Love

This is a song from the Decemberists forthcoming album, The Hazards Of Love. I'm almost 
that this is 100% correct. Enjoy.


Verses 1&2
E---------------|
B---------------|
G---------------|
D---------------|
A-5-5-5---2-2-2-|
E-3-3-3-x-0-0-0-|

Verse (used for rest of the song)
E---------------|
B---------------|
G---------------|
D-5-5-5-x-2-2-2-|
A-5-5-5-x-2-2-2-|
E-3-3-3-x-0-0-0-|

Chorus (Alright, Alright...)
E---------------------|
B-1----1--------------|
G-2----0--------------|
D-2----2--------------|
A-0----3--------------|
E---------------------|

Ending
E----------------|
B----------------|
G----------------|
D-5-5-5--2-2--2--|
A-5-5-5--2-2--2--|
E-3-3-3--0-0--0--|
Tap to rate this tab
# A B C D E F G H I J K L M N O P Q R S T U V W X Y Z