Song name
# A B C D E F G H I J K L M N O P Q R S T U V W X Y Z

Decemberists - Hazards Of Love 3 Revenge tab

This riff is played throughout most of the album by different instruments but this is 
much it,
there are some differences but if you are playing it on acoustic guitar it will sound 
it.
e|--------------------------------------------------------------------------------------|
b|--------------------------------------------------------------------------------------|
g|--------0-2-3-2------------------0-2-3-2------------------0-2-3-2---------------------|
d|--0-2-3---------0---0-2----0-2-3---------0---0-2----0-2-3---------0---0-2-2-3-2-0-2-3-|
a|--------------------------------------------------------------------------------------|
e|--------------------------------------------------------------------------------------|


e|--------------------------------------------------------------------------------------|
b|--------------------------------------------------------------------------------------|
g|--------0-2-3-2------------------0-2-3-2------------------0-2-3-2---------------------|
d|--0-2-3---------0---0-2----0-2-3---------0---0-2----0-2-3---------0---0-2-2-3-2-0-2-3-|
a|------------------------------------------------------------------------------------1-|
e|--------------------------------------------------------------------------------------|
Tap to rate this tab
# A B C D E F G H I J K L M N O P Q R S T U V W X Y Z