Song name
# A B C D E F G H I J K L M N O P Q R S T U V W X Y Z

Decemberists - Calamity Song tab

Hey all. This tab is just the main riff for the song Calamity Song by The Decemberists,
from their new album The King is Dead (2011). There's another tab on here that has
the chords and the chorus and etc. I just thought this was an integral part and it was
missing! So, here goes. Enjoy!

Capo 2 (notes not relative to capo [except for "0" which kinds just means open even if
it's technically a "2"])



e---------------------------------------------------|
B---------------------------------------------------|
G----------------------------0----------------------|      x2
D--7--7-7--9-7--7-7------0-4---4-0------------------|
A---------------------5-----------------------------|
E---------------------------------------------------|


e---------------------------------------------------|
B---------------------------------------------------|
G---------------------------------------------------|
D----------------------------0----------------------|
A--7--7-7--9-7--7-7------0-4---4-0------------------|
E---------------------5-----------------------------|

e---------------------------------------------------|
B---------------------------------------------------|
G---------------------------------------------------|
D---------------------5-4---------------------------|
A--7--7-7--9-7--7-7--------7--5---------------------|
E---------------------------------------------------|
Tap to rate this tab
 
# A B C D E F G H I J K L M N O P Q R S T U V W X Y Z