Song name
# A B C D E F G H I J K L M N O P Q R S T U V W X Y Z

Decemberists - Calamity Song tab

e|---------------------------------------------------------------------|
B|---------------------------------------------------------------------|
G|--2-2-2-4-2-2-2----2-------------------------------------------------|
D|--2-2-2-2-2-2-2-2h4-4-2----------------------------------------------|  x2
A|---------------------------------------------------------------------|
E|---------------------------------------------------------------------|

e|-------------------------------------------------------------------|
B|-------------------------------------------------------------------|
G|-------------------------------------------------------------------|
D|--2-2-2-4-2-2-2----2----2-2-2-4-2-2-2-5-4-2-0----------------------|
A|--3-3-3-3-3-3-3-2h4-4-2-3-3-3-3-3-3-3------------------------------|
E|-------------------------------------------------------------------|
Tap to rate this tab
 
# A B C D E F G H I J K L M N O P Q R S T U V W X Y Z