Song name
# A B C D E F G H I J K L M N O P Q R S T U V W X Y Z

Decemberists - This Is Why We Fight tab

Capo 2nd
Tab is in relation to capo
Slide between 2-3-2

E------------------------------------------------------------------|
B------------------------------------------------------------------|
G------------------------------------------------------------------|
D------------------------------------------------------------------|
A----2-3-2--5-3-2--2-3-2------------2-3-2--5-3-2--2-3-2------------|
E---0------0------0------0-5-3-2---0------0-----0------------------|

E------------------------------------------------------------------|
B------------------------------------------------------------------|
G------------------------------------------------------------------|
D----2-4-2---------------------------------------------------------|
A----------5-3-2---------------------------------------------------|
E---0--------------------------------------------------------------|
Tap to rate this tab
 
# A B C D E F G H I J K L M N O P Q R S T U V W X Y Z