Song name
# A B C D E F G H I J K L M N O P Q R S T U V W X Y Z

Decemberists - Rox In The Box tab

Artist: The Decemberists
 Album: The King Is Dead
  Song: Rox In The Box

Tabbed by: ttiot8
Edited by: martin.mcmanus@gmail.com / Loizbec (instrumental)

Capo 2
C/Em: 	[020000]
C/G: 	[332010]

§ Intro riff (play neighboring strings as well)
|-0-------------------------------------|-0-------------------------------|
|-1-------------------------------------|-1-------------------------------|
|-0h2-0h2-0h2p0-------------------------|-0h2-0h2-0h2p0-------------------|
|-2-------------2-2-0h2-2-0h2-2-2p0-----|-2-------------2-2-0h2-2-2p0-----|
|-0---------------------------------2-0-|-0---------------------------2-0-|
|-X-------------------------------------|-X-------------------------------|

§Verse
§Am
 Get the rocks in the box
§C                                  C/Em 
 Get the water right down to your socks
§      Em                                  Am
 This bulkhead's built of fallen brethren bones

We all do what we can
We endure our fellow man
And we sing our songs to the headframes' creaks and moans

§chorus
§         F
 And it's one two three
§        C/G
 On the wrong side of the lee
§              G
 What were you meant for?
§              Am
 What were you meant for?

And it's seven eight nine
You get your shuffle back in line
And if you ever make it to ten you won't make it again
And if you ever make it to ten you won't make it again
[Intro riff]

[verse:]
And you won't make a dime
On this gray Granite Mountain Mine
Of dirt you're made and to dirt you will return

So while we're living here
Let's get this little one thing clear
There's plenty of men to die; you don't jump your turn

[chorus]

§Instrumental
§Am - C - C/Em - Em - Am
e|------------------------|---5--7--7p5-------|----------5-----------------|
B|-5p3--------5p3---------|-5-----------8-5-5-|-5h7-8--8-----5h7-8p7-5---5-|
G|-----5-4-2------5-4-2---|-------------------|------------------------7---|

e|-------------------------------|
B|-------------5-8-5---5---------|
G|---4-5-4-5-7-------7---5-------|
D|-7-----------------------7-5-7-|

§Am - C - C/Em - Em - Am

[chorus:]
And it's one two three
On the wrong side of the lee
What were you meant for?
Whatever you're meant for?

And it's seven eight nine
You get your shuffle back in line
And if you ever make it to ten you won't make it again
And if you ever make it to ten you won't make it again
And if you ever make it to ten you won't make it again
(Variations of Intro Riff)
§end on Am
Tap to rate this tab
# A B C D E F G H I J K L M N O P Q R S T U V W X Y Z