Song name
# A B C D E F G H I J K L M N O P Q R S T U V W X Y Z

Decemberists - Tain tab

The Decemberists - The Tain

e|------------------------------------------------------------------------------|
B|------------------------------------------------------------------------------|
G|------------------------------------------------------------------------------| x2 (intro)
D|------------------------------------------------------------------------------|
A|--------2--1h2p1-----------2/5--6--7------------------------------------------|
E|--0--3------------3--0--3-----------------------------------------------------|

e|------------------------------------------------------------------------------|
B|------------------------------------------------------------------------------|
G|------------------------------------------------------------------------------| x2
D|------------------------------------------------------------------------------|
A|--------2--1h2p1-----------2/5--6--7------------------------------------------|
E|--0--3------------3--0--3-----------------------------------------------------|

e|------------------------------------------------------------------------------|
B|------------------------------------------------------------------------------|
G|------------------------------------------------------------------------------|
D|------------------------------------------------------------------------------|
A|--------2--1h2p1---------0--2-----7-5-7--------2--1h2p1-----------------------|
E|--0--3------------3-0-3--------0---------0--3------------3--0-----------------|

Tap to rate this tab
# A B C D E F G H I J K L M N O P Q R S T U V W X Y Z