Song name
# A B C D E F G H I J K L M N O P Q R S T U V W X Y Z

Decemberists - The Queens Rebuke The Crossing tab

Chords used

 
F: 3  3  3  X  X  X 
G: 5  5  5  X  X  X
D: 0  0  0  X  X  X
A: 7  7  7  X  X  X

(D F D G)x4
D  F  D     G        D                 F
Iiiii'mmmmmm made of bones of the branches, 
D                    G                D F D G
The boughs, and the brow-beating light
        D            F             D               G      D F D G
Oh, my feet are the trunks and my head is the canopy high
        D          F          D              G                F
And my fingers extend to the leaves and the eaves and the bright
          G           F
Brightest shine, it's my shine

(D F D G)x2
    D F D G        D      F       D            G              D F D G    
And heeeeee was a baby, abandoned entombed in a cradle of clay
     D          F             D         G           D F D G
And I was the soul that took pity and stole him away
     D            F         D         G          F
And gave him the form of a fawn to inhabit by day
          G         F
Brightest day, it's my day

(D F D G)x6

     D F D G        D            F                  D          G           
And yoooouuuu have removed this temptation that's troubled my innocent child

D G D F

      D         F            D          G        D     F D G
To abduct and abuse and to render her rift and defiled
         D         F            D           G            F
But the river is deep to the banks and the water is wild
           G       F
But I will fly you to the far side

(D F D G) x4

E:|---------------------------------------------------------------|
B:|---------6--------------------6--------------------6-----------|
G:|---7p5-----7------------7p5-----7------------7p5-----7---------|
D:|-0-----7------3-5-3-5-0-----7------3-5-3-5-0-----7------3-5-3-5|
A:|-0------------3-5-3-5-0------------3-5-3-5-0------------3-5-3-5|
D:|-0------------3-5-3-5-0------------3-5-3-5-0------------3-5-3-5|

E:|------------------------------------8-|
B:|----------------------------------5---|
G:|------------5-------------5h7-5h7-----|
D:|-7----7p5-----7~--7-7p5---------------|
A:|-7--------7-------------7-------------|
D:|-7------------------------------------|

E:|------------------------------------8-|
B:|----------------------------------5---|
G:|------------5-------------5h7-5h7-----|
D:|-7----7p5-----7~--7-7p5---------------|
A:|-7--------7-------------7-------------|
D:|-7------------------------------------|

E:|---------------------------------------------------------------|
B:|---------6--------------------6--------------------6-----------|
G:|---7p5-----7------------7p5-----7------------7p5-----7---------|
D:|-0-----7------3-5-3-5-0-----7------3-5-3-5-0-----7------3-5-3-5|
A:|-0------------3-5-3-5-0------------3-5-3-5-0------------3-5-3-5|
D:|-0------------3-5-3-5-0------------3-5-3-5-0------------3-5-3-5|


E:|------------------------------------8-|
B:|----------------------------------5---|
G:|------------5-------------5h7-5h7-----|
D:|-7----7p5-----7~--7-7p5---------------|
A:|-7--------7-------------7-------------|
D:|-7------------------------------------|

E:|------------------------------------8-|
B:|----------------------------------5---|
G:|------------5-------------5h7-5h7-----|
D:|-7----7p5-----7~--7-7p5---------------|
A:|-7--------7-------------7-------------|
D:|-7------------------------------------|

(D F D G) x3

E:|------------------------------------8-|
B:|----------------------------------5---|
G:|------------5-------------5h7-5h7-----|
D:|-7----7p5-----7---7-7p5---------------|
A:|-7--------7-------------7-------------|
D:|-7------------------------------------|

E:|------------------------------------8-|
B:|----------------------------------5---|
G:|------------5-------------5h7-5h7-----|
D:|-7----7p5-----7~--7-7p5---------------|
A:|-7--------7-------------7-------------|
D:|-7------------------------------------|

E:|---------------------------------------------------------------|
B:|---------6--------------------6--------------------6-----------|
G:|---7p5-----7------------7p5-----7------------7p5-----7---------|
D:|-0-----7------3-5-3-5-0-----7------3-5-3-5-0-----7------3-5-3-5|
A:|-0------------3-5-3-5-0------------3-5-3-5-0------------3-5-3-5|
D:|-0------------3-5-3-5-0------------3-5-3-5-0------------3-5-3-5|

A
Tap to rate this tab
# A B C D E F G H I J K L M N O P Q R S T U V W X Y Z