Guitaretab - guitar tabs
Song name
# A B C D E F G H I J K L M N O P Q R S T U V W X Y Z

Decemberists - Of Angels And Angles tab

The Decemberists - Of Angels and Angles

off the 2005 album PICARESQUE

standard tuning. this sound best if you play the whole lot with your thumb to give it
breathy sound.

beautiful track and a perfect closer for a really stellar album. magical as it is, the
actually quite simple.

INTRO:
e|-------------------------------------------------------------------------------|
B|-------0---0-------0---0-------0------------------------3-0--------0---0-------|
G|-----0-----------0-----------0----------0--------0---2-----------0-------------|
D|---0-----------0-----------0----------0--------2---0-----------0---------------|
A|-3-----------3-----------3----------2--------2---------------3-----------------|
E|---------3-----------3------------3--------0--------------------------3--------|

 "There are angels..."
e|-------------------------------------------------------------------|
B|-------0---0-------0---0-------0------------------------3-0--------|
G|-----0-----------0-----------0----------0---------0---2------------|
D|---0-----------0-----------0----------0---------2---0--------------|
A|-3-----------3-----------3----------2---------2--------------------|
E|---------3-----------3------------3---------0----------------------|

"There's a ticking..."
e|-------------------------------------------------------------------|
B|-------0---0-------0---0-------0------------------------3-0--------|
G|-----0-----------0-----------0----------0---------0---2------------|
D|---0-----------0-----------0----------0---------2---0--------------|
A|-3-----------3-----------3----------2---------2--------------------|
E|---------3-----------3------------3---------0----------------------|

"...Still of day..."
e|------------------------------------------------0h2------------|
B|-------0---0-------0---0-------0--------------3-----3----------|
G|-----0-----------0-----------0----------0---2---------2--------|
D|---0-----------0-----------0----------0---0-------------0------|
A|-3-----------3-----------3----------2--------------------------|
E|---------3-----------3------------3----------------------------|

"and Darling..."
e|------------------------------------------------0h2------------|
B|-------0---0-------0---0-------0--------------3-----3----------|
G|-----0-----------0-----------0----------0---2---------2--------|
D|---0-----------0-----------0----------0---0-------------0------|
A|-3-----------3-----------3----------2--------------------------|
E|---------3-----------3------------3----------------------------|

"Away..."
e|-------------------------------------------------------------------|
B|-------0---0-------0---0-------0------------------------3-0--------|
G|-----0-----------0-----------0----------0---------0---2------------|
D|---0-----------0-----------0----------0---------2---0--------------|
A|-3-----------3-----------3----------2---------2--------------------|
E|---------3-----------3------------3---------0----------------------|
[ Tab from: http://www.guitaretab.com/d/decemberists/58692.html ]
 "There's a tough word..."
e|-------------------------------------------------------------------|
B|-------0---0-------0---0-------0------------------------3-0--------|
G|-----0-----------0-----------0----------0---------0---2------------|
D|---0-----------0-----------0----------0---------2---0--------------|
A|-3-----------3-----------3----------2---------2--------------------|
E|---------3-----------3------------3---------0----------------------|

"There's a swallow..."
e|-------------------------------------------------------------------|
B|-------0---0-------0---0-------0------------------------3-0--------|
G|-----0-----------0-----------0----------0---------0---2------------|
D|---0-----------0-----------0----------0---------2---0--------------|
A|-3-----------3-----------3----------2---------2--------------------|
E|---------3-----------3------------3---------0----------------------|

"...on your open palm today..."
e|------------------------------------------------0h2------------|
B|-------0---0-------0---0-------0--------------3-----3----------|
G|-----0-----------0-----------0----------0---2---------2--------|
D|---0-----------0-----------0----------0---0-------------0------|
A|-3-----------3-----------3----------2--------------------------|
E|---------3-----------3------------3----------------------------|

"and Darling..."
e|------------------------------------------------0h2------------|
B|-------0---0-------0---0-------0--------------3-----3----------|
G|-----0-----------0-----------0----------0---2---------2--------|
D|---0-----------0-----------0----------0---0-------------0------|
A|-3-----------3-----------3----------2--------------------------|
E|---------3-----------3------------3----------------------------|

"Away..."
e|-------------------------------------------------------------------|
B|-------0---0-------0---0-------0------------------------3-0--------|
G|-----0-----------0-----------0----------0---------0---2------------|
D|---0-----------0-----------0----------0---------2---0--------------|
A|-3-----------3-----------3----------2---------2--------------------|
E|---------3-----------3------------3---------0----------------------|

e|-------------------------------------------------------------------|
B|-------0---0-------0---0-------0------------------------3-0--------|
G|-----0-----------0-----------0----------0---------0---2------------|
D|---0-----------0-----------0----------0---------2---0--------------|
A|-3-----------3-----------3----------2---------2--------------------|
E|---------3-----------3------------3---------0----------------------|


 "There are angels..."
e|-------------------------------------------------------------------|
B|-------0---0-------0---0-------0------------------------3-0--------|
G|-----0-----------0-----------0----------0---------0---2------------|
D|---0-----------0-----------0----------0---------2---0--------------|
A|-3-----------3-----------3----------2---------2--------------------|
E|---------3-----------3------------3---------0----------------------|

e|----------|
B|----------|
G|----------|
D|--2-------|
A|--3--2----|
E|-----3----|


enjoy!
Related for Of Angels And Angles tab
×
Of Angels And Angles