Song name
# A B C D E F G H I J K L M N O P Q R S T U V W X Y Z

Decemberists - Clementine tab

The other tabs were'nt really doin it for me, this is how i play it.

*play it very softly and slow

*The measurment durnig the verse is not exact, (v  ^  v  ^ above the tab is the up down 
pattern

if theres any confusion)

(key) H=hammer on, P=pull off the the hammer on note, / slide to specified note

first tab, what do ya think?

Intro:

e-3---------------------------------------3-|
B-3---------------------------------------3-|
G-0---4/2---2---0-------0---------0---0---0-|x2
D-0-----------------2-------0---(h2)------2-|
A-2---------------------------------------3-|
E-3---------------------------------------0-|

Verse:

  You         slept in your     over        alls

  v  ^  v  ^  v                 v  ^  v  ^  v  ^  v  ^  v  ^  v  ^
e-3-----------------------------3-----------3-----3-----3---------->
B-3-----------------------------3-----------2-----3-----3---------->
G-0-----------------------------0-----------3-----0-----0---------->
D-0-----------------------------2-----------0-----x-----0---------->
A-2----------h2-----0-----------3-----------0-----x-----2---------->
E-3--------------------3--------0-----------x-----x-----3---------->

   After   the wreck ing   ball                 Bereft you of  house

               v  ^  v  ^  v  ^  v  ^  v                       v  ^
e--------------3-----------2-----3-----3-----------------------3--->
B--------------3-----------3-----3-----3-----------------------3--->
G--------------0-----------2-----0-----0-----------------------0--->
D--------------2-----------0-----x-----0-----------------------2--->
A-h2---0-------3-----------0-----x-----2--------h2-----0-------3--->
E----------3---0-----------x-----x-----3-------------------3---0--->

  and   home                And left you with sweet fuck-all

  v  ^  v  ^  v  ^  v  ^  v  ^  v             v     ^    v  ^  v  ^
e-------3-----3-----3-----------3-------------3----------3--------->
B-------2-----3-----3-----------3-------------3----------2--------->
G-------3-----0-----0-----------0-------------0----------3--------->
D-------0-----x-----0-----------0-------------2----------0--------->
A-------0-----x-----2-----------h2---0--------3----------0--------->
E-------x-----x-----3-----------3--------3----0----------x--------->

   So we got in your car With our kickabout hearts And we hollared
e--------3------------------------3-------------------------------->
B--------3------------------------3-----------------------2-------->
G--------0------------------------0-----------------------2-------->
D--------2------------------------2-----------------------2-------->
A--------3------------------------2-------------------------------->
E------------------------------------------------------------------>

  out  'sweet clementine'
e----------------------2---h3p3------>
B----------------------3------------->
G---------------------h2------------->
D------------------------------------>
A------------------------------------>
E------------------------------------>

-same progression of (G C D G) & (C Em A D) in whole song.

solo between 2nd and 3rd verse and outro I play:

e-3/7/5/3-0-3---3/7/5/3-0-3/5-h7p7-3/7/5/3/8/7/5-h7p7-3-7-5-3-0-3--|
B-3-----------3-3------------------3------------------3-----------3|
G-0-------------0------------------0------------------0------------|
D-0-------------0------------------0------------------0------------|
A-2-------------2------------------2------------------2------------|
E-3-------------3------------------3------------------3------------|


(lyrics)
Tell your mom to marry us
A candle to carry us
With cans on our bicycle fenders
So sweet and hilarious
And we'll find us a home
Built of packaging foam
That will be there 'til after we die

And, I'll play the clarinet
Use clamshells for castinets
We play with our bags on our shoulders
My sweet lady lioness
And I watch as you sleep
So indelibly deep
An I hum to you sweet clementine
Tap to rate this tab
 
# A B C D E F G H I J K L M N O P Q R S T U V W X Y Z