Song name
# A B C D E F G H I J K L M N O P Q R S T U V W X Y Z

Decemberists - From My Own True Love Lost At Sea tab

Highlighted       Show chord diagrams
From my Own True Love (Lost at Sea) By the Decemberists 
Standard Tuning!!!

Intro thing:     
|-----3---------3----|
|-----4---------4----|
|-----5---------5----|
|-----5---------5----| Jump to Chords
|--3--3------1--3----|
|----------3---------|

Riff 1 (played Later):
|-------6--------|
|-------6--------|
|-------7--------|
|-------8--------|
|----1--8--------|
|--3----6--------|

Riff 2(played Later):
|-----------6----|
|-----------6----|
|-----------7----|
|-----------8----|
|-----------8----|
|-----6--7--6----|

Chords:

 Cm     F     A#    G#
|-3-|       |-6-|
|-4-| |-1-| |-6-| |-4-|
|-5-| |-1-| |-7-| |-4-|
|-5-| |-2-| |-8-| |-5-|
|-3-| |-3-| |-8-| |-6-|
|-3-| |-3-| |-6-| |-6-|
      |-1-|       |-4-|


Cm
Four score years 

                    F          Cm
Living down in this rain swept town 

Cm
Sea salt tears 

                      F          Cm Riff 1
Swimming round as the rain comes down 


A#                        Cm
Mr Postman, do you have a letter for me? 

A#                        Cm
Mr Postman, do you have a letter for me? 

  G#
A letter for me 

        Cm
From my own true love 

A#
Lost at sea 

Riff #2 Cm
Lost at sea 


Interlude: x2

Rythm:    Cm                           F       Cm


Lead:   |-3----------3----5-5-6-5-3----8---5---3----------------|
        |----4--------------------------------------------------|
        |--------5----------------------------------------------|
        |-------------------------------------------------------|
        |-------------------------------------------------------|
        |-------------------------------------------------------|


A#                        Cm
Mr Postman, do you have a letter for me? 

A#			  Cm
Mr Postman, do you have a letter for me? 

  G#
A letter for me 
        
        Cm
From my own true love 

A#
Lost at sea 

        Cm
Lost at sea


(Then Fade out playing the Interlude)
Tap to rate this tab
# A B C D E F G H I J K L M N O P Q R S T U V W X Y Z