Song name
# A B C D E F G H I J K L M N O P Q R S T U V W X Y Z

Decemberists - Gymnast High Above The Ground tab

song      : the gymnast, high above the ground
artist    : the decemberists
tabbed by : oneshotnothing


standard tuning
listen for timing and structure


intro and verse

e--|------------------------------------------------|
b--|------------------------------------------------|
g--|------------------------------------------------|
d--|------4---4-------4---4-------4---4------4----0-|
a--|--2-----------2-----------2-----------2---------|
E--|3---3---3---3---3---3---3---3---3---3---3---3---|


e--|------------------------------------------------|
b--|------------------------------------------------|
g--|------------------------------------------------|
d--|------2---2-------2---2-------2---2------2----0-|
a--|--0-----------0-----------0-----------0---------|
E--|3---3---3---3---3---3---3---3---3---3---3---3---|


e--|------------------------------------------------|
b--|------------------------------------------------|
g--|------------------------------------------------|
d--|------0---0-------0---0-------0---0------0------|
a--|--2-----------2-----------2-----------2-------0-|
E--|3---3---3---3---3---3---3---3---3---3---3---3---|


e--|------------------------------------------------|
b--|------------------------------------------------|
g--|------------------------------------------------|
d--|------0---0-------0---0-------0---0------0----0-|
a--|--2-----------2-----------2-----------2---------|
E--|3---3---3---3---3---3---3---3---3---3---3---3---|

chorus

C                                                               G
through the tarlatan holes you've been slipping been slipping away (la da dum dum)

C                                                   G
and the weather will hold it's been ever so ever so gray (la da dum dum)

    Em            G                     C
and here as we're coming down and we're sounding out

       Cm                Em   D/F#  G      G/B       C
it's a terrible terrible tide as it lights upon your eye

    Em           G                 C
but there on the motorway reeks of marmalade

       Cm                Em   D/F#  G      G/B       C
it's a chemical chemical kind as it lights upon your eye

Am               C
lights upon your eye

outro

Em    D/F#  G       G/B  C
April       marches      on
Tap to rate this tab
 
# A B C D E F G H I J K L M N O P Q R S T U V W X Y Z