Song name
# A B C D E F G H I J K L M N O P Q R S T U V W X Y Z

Decipher - Duct Tape tab

-------------------------------------------------------------------------------
                      DUCT TAPE - DECIPHER
-------------------------------------------------------------------------------
MAIN RIFF
E|--------------------|
B|--------------------|
G|--------------------|  
D|-5-5-5/7--5-5-5/7-7-|
A|-5-5-5/7--5-5-5/7-7-|
E|-3-3-3/5--3-3-3/5-5-|  X5

VERSE
Pm...
E|---|   |-----------| \
B|---|   |-----------| |
G|---|   |-----------| |
D|-7-|   |-5-5-5/7-7-| |
A|-7-|   |-5-5-5/7-7-| |
E|-5-|x24|-3-3-3/5-5-| /   x3
Bryce solo
E|-------------------------------8----8-10-10-8-----------------------|
B|--------------------------8-10---10-----------10-8---8-10-8---------|
G|---------------5-7b-5-7/9--------------------------9--------9-7-5---|
D|-----------5-7----------------------------------------------------7-|
A|-----3-5/7----------------------------------------------------------|
E|-3-5----------------------------------------------------------------|


MAIN RIFF
E|--------------------|
B|--------------------|
G|--------------------|  
D|-5-5-5/7--5-5-5/7-7-|
A|-5-5-5/7--5-5-5/7-7-|
E|-3-3-3/5--3-3-3/5-5-| X3

VERSE
E|-------------------------------|
B|-------------------------------|
G|-------------------------------|
D|-7------5------3------5-5-5/7--|
A|-7-(x8)-5-(x8)-3-(x8)-5-5-5/7--| x3
E|-5------3------1------3-3-3/5--|

MAIN RIFF
E|--------------------|
B|--------------------|
G|--------------------|  
D|-5-5-5/7--5-5-5/7-7-|
A|-5-5-5/7--5-5-5/7-7-|
E|-3-3-3/5--3-3-3/5-5-| X6

BRIDGE
Pm..................................
E|---------------------------------|
B|---------------------------------|
G|---------------------------------|
D|-7-7-7-7-5-5-5-5-7-7-7-7-3-3-3-3-|
A|-7-7-7-7-5-5-5-5-7-7-7-7-3-3-3-3-|
E|-5-5-5-5-3-3-3-3-5-5-5-5-1-1-1-1-| x3

MAIN RIFF
E|--------------------|
B|--------------------|
G|--------------------|  
D|-5-5-5/7--5-5-5/7-7-|
A|-5-5-5/7--5-5-5/7-7-|
E|-3-3-3/5--3-3-3/5-5-| X3

http://www.decipher.co.nr/    <<<
Tap to rate this tab
# A B C D E F G H I J K L M N O P Q R S T U V W X Y Z