Song name
# A B C D E F G H I J K L M N O P Q R S T U V W X Y Z

Decipher - Get A Life tab

---------------------------------------------------------------------------
                 GET A LIFE - DECIPHER
---------------------------------------------------------------------------

intro
E|--------------------------------|
B|-----1--0-1---------------------|
G|------------2-------0-----------|
D|---2----------2---2-------0-----|
A|-0--------------3-------2-----2-| 
E|----------------------3-----3---|

Verse 
E|--------------------------------|
B|-----1--0-1---------------------|
G|------------2-------0-----------|
D|---2----------2---2-------0-----|
A|-0--------------3-------2-----2-|
E|----------------------3-----3---|

Chorus 
E|-0-0-0-0-0-0-0-0-0-0-0-0-0-0-0-0-|
B|-1-1-1-1-1-1-1-1-1-1-1-1-1-1-1-1-|
G|-2-2-2-2-2-2-2-2-0-0-0-0-0-0-0-0-|
D|-2-2-2-2-2-2-2-2-2-2-2-2-0-0-0-0-|
A|-0-0-0-0-0-0-0-0-3-3-3-3-2-2-2-2-|
E|-------------------------3-3-3-3-|

END
E|----12----------12---------------|
B|----------13----------13---------|
G|-14----14----14----14----14------|
D|---------------------------------|
A|---------------------------------|
E|---------------------------------|

INTRO (X2)
VERSE (X4)
CHORUS (X4)
VERSE (X4)
CHORUS (X4)
GUITAR SOLO (SORRY COULDN'T TAB IT)
CHORUS (X4)
VERSE (X4)
END (X1)

http://www.decipher.co.nr/    <<
Tap to rate this tab
# A B C D E F G H I J K L M N O P Q R S T U V W X Y Z