Song name
# A B C D E F G H I J K L M N O P Q R S T U V W X Y Z

Declan Orourke - Your World tab

tune guitar to DADGAD, capo 2nd fret.

when i first saw ................ standing in line

-0--0--0--0--0------------0--0--0--0--0--0---------------------------|
-0--0--0--0--0------------0--0--0--0--0--0---------------------------|
-2--2--2--2--2------------0--0--0--0--0--0---------------------------|
-0--2--4--2--0------------5--4--2--4--2--0---------------------------|
-0--0--0--0--0------------0--0--0--0--0--0---------------------------|
-0--0--0--0--0------------5--5--5--5--5--5---------------------------|

You world .....................what i want to saaaay

-0--0--0--------------------0--0-------------------------------|
-0--0--0--------------------0--2-------------------------------|
-0--0--0--------------------4--4-------------------------------|
-0--0--0--------------------4--4-------------------------------|
-2--5--7--------------------2--0-------------------------------|
-2--5--7--------------------0--0-------------------------------|


just listen to the song to find out how many times you play each section.

Enjoy, Cillian
Tap to rate this tab
# A B C D E F G H I J K L M N O P Q R S T U V W X Y Z