Song name
# A B C D E F G H I J K L M N O P Q R S T U V W X Y Z

Decoder - The Light tab

DECODER - THE LIGHT SELF TITLED ALBUM
Transcribed by Andrew Alarcon

This song is really easy pretty straight forward, 
I wish I could get paid for this, I would post a lot 
more. This whole album probably.

Tuning - Drop B

The first 3 chords of the intro uses the same chords as the verses.

Intro/Verse
|---------------------------------------------------------|
|-14--------10------8-----------------5----------6--------|
|-11--------7-------6-----------------2----------3--------|
|--x--------x-------x-----------------x----------x--------|
|--x--------x-------x-----------------x----------x--------|
|-12-(x8)---8-(x4)--7-(3x)------------3-(8x)-----5-(6x)---|

Chorus
|------------------------------------------------------------|
|-14-14-14-14-14-14-------------10-10-10-10----5-------6-----|
|-11-11-11-11-11-11-------------7-7-7-7-7-7----2-------3-----|
|--x--x--x--x--x--x---0~--------x-x-x-x-x-x----x-------x-----|
|--x--x--x--x--x--x---0~--------x-x-x-x-x-x----x-------x-----|
|-12-12-12-12-12-12---0~--(2x)--8-8-8-8-8-8----3-------5-----|


Breakdown - Figure out the rhythm
|------------------------------------------------------------|
|------------------------------------------------------------|
|------------------------------------11----2-----------------|
|------------------------------------------------------------|
|------------------------------------------------------------|
|-12----3-----8--7----5----------\12-----3-------------------|

Tap to rate this tab
 
# A B C D E F G H I J K L M N O P Q R S T U V W X Y Z