Song name
# A B C D E F G H I J K L M N O P Q R S T U V W X Y Z

Decoder - Transcendence tab

DECODER - TRANSCENDENCE SELF TITLED ALBUM

I have quite a few other
songs figured out and i can tab them. If you could please
donate some money i would be more than glad to post them.
Go to my donation site, anything helps, just go ahead and
leave me any requests for tabs.

https://www.paypal.com/cgi-bin/webscr?
cmd=_donations&business=AB23RKPADTDPY&lc=US&item_name=Tab
%20Donations¤cy_code=USD&bn=PP%2dDonationsBF%3abtn_donateCC_LG%2egif%3aNonHosted

Tuning - Drop B

Intro - Both guitars
|-------5----------5----------5----------5-----|
|-------6----------6----------6----------6-----|
|-------7----------7----------7----------7-----|
|----------------------------------------------|
|-8-8-8---8-8-8-8-8--8-8-8-8-8--8-8-8-8-8------|
|-5-5-5---5-5-5-5-5--5-5-5-5-5--5-5-5-5-5------|

|-----------------------------------------------|
|-----------------------------------------------|
|-----------------------------------------------|
|---------------------121212121212--------------|
|-7-7-7-7-7-7-7-7-7---8-8-8-8-8-8---1212121212--|
|-3-3-3-3-3-3-3-3-3---8-8-8-8-8-8---8-8-8-8-8---|

|-------5----------5----------5----------5-----|
|-------6----------6----------6----------6-----|
|-------7----------7----------7----------7-----|
|----------------------------------------------|
|-8-8-8---8-8-8-8-8--8-8-8-8-8--8-8-8-8-8------|
|-5-5-5---5-5-5-5-5--5-5-5-5-5--5-5-5-5-5------|

|-----------------------------------------------|
|-----------------------------------------------|
|-----------------------------------------------|
|---------------------121212121212--------------|
|-7-7-7-7-7-7-7-7-7---8-8-8-8-8-8---1212121212--|
|-3-3-3-3-3-3-3-3-3---8-8-8-8-8-8---8-8-8-8-8---|

|-------------------------------|
|-------------------------------|
|-------------------------------|
|-------------------------------|
|-8-8-8-8-----10-10-10-10-10-10-|
|-5-5-5-5-----7--7--7--7--7--7--|

|-------5----------5----------5----------5-----|
|-------6----------6----------6----------6-----|
|-------7----------7----------7----------7-----|
|----------------------------------------------|
|-8-8-8---8-8-8-8-8--8-8-8-8-8--8-8-8-8-8------|
|-5-5-5---5-5-5-5-5--5-5-5-5-5--5-5-5-5-5------|

|-----------------------------------------------|
|-----------------------------------------------|
|-----------------------------------------------|
|---------------------121212121212--------------|
|-7-7-7-7-7-7-7-7-7---8-8-8-8-8-8---1212121212--|
|-3-3-3-3-3-3-3-3-3---8-8-8-8-8-8---8-8-8-8-8---|


|------------------------------------------------------|
|------------------------------------------------------|
|------------------------------------------------------|
|------------------------------------------------------|
|-8-8-8-8-----10-10-10-10-10-10----12121212121212121212|
|-5-5-5-5-----7--7--7--7--7--7-----8-8-8-8-8-8-8-8-8-8-|

Verse - Rhythm guitar
|------------------------------------|
|------------------------------------|
|-------------------9--10--2---------|
|-0----0----0~------x--x---x---------|
|-0----0----0~------7--8---1---------|
|-0----0----0~------0--0-------------|

Verse - Leads
|-------------------------|
|-------------------------|
|-9--10-------------------|
|--------7--5-5\7---------|
|-------------------------|
|-------------------------|

|-------------------------|
|-------------------------|
|-9--10--2--------2-2-----|
|--------x--------x-x-----|
|--------1--------1-1-----|
|-------------------------|

|--------------------------------------------------|
|--------------------------------------------------|
|-2~--------2~--------5-5-5-5-5---xxx-2~-------2~--|
|-x~--------x~--------x-x-x-x-x---xxx-x~-------x~--|
|-1~--------1~--------3-3-3-3-3---xxx-1~-------1~--|
|--------------------------------------------------|

Pre & Chorus jam riff
|---------------------------------------------|
|---------------------------------------------|
|---2\5p0-5\7---------------------------------|
|--------------0----5--5-----7--7------2--2---|
|---------------------------------------------|
|-0-----------5--5\7--7--xx-8--8--xx--3--3----|

|-------------------------|
|-------------------------|
|-------------------------|
|--3--3------2--2---------|
|-------------------------|
|-5--5--xx--3--3----------|


|---------------------------------------------|
|---------------------------------------------|
|-9h-10-9-------12-12-12\9--x-x--2-2-2-2-2----|
|---------7--5--------------x-x--x-x-x-x-x----|
|---------------------------x-x--1-1-1-1-1----|
|---------------------------------------------|


|-------------------------------------------------------|
|-------------------------------------------------------|
|-2-2-2-2-2----5-5-5-5-5----7-7-7-7-7----14-14-14-14-14-|
|-x-x-x-x-x----x-x-x-x-x----x-x-x-x-x----x--x--x--x--x--|
|-1-1-1-1-1----3-3-3-3-3----5-5-5-5-5----12-12-12-12-12-|
|-------------------------------------------------------|
Tap to rate this tab
 
# A B C D E F G H I J K L M N O P Q R S T U V W X Y Z