Song name
# A B C D E F G H I J K L M N O P Q R S T U V W X Y Z

Decyfer Down - Ride With Me tab

      This is a great song. This is my first tab. Please rate and comment!!!

Song: Ride With Me
Artist: Decyfer Down
Album: Crash
Tuning: Drop C

key:
    s= slide
    T= tens(10)
    pm= palm mute

Intro {no distortion}                                   very fast slides
D--------------------------------------------------------------------|
A--------------------------------------------------------------------|
F--------------8-------------------------------8--55-----------------|x2
C--0----3s5s3--6--0----3s5s3---8--0----3s5s3---6--33--0-5s6s5--3-----|
G--0----3s5s3--6--0----3s5s3---6--0----3s5s3---6--33--0--------------|
C--0----3s5s3--6--0----3s5s3---6--0----3s5s3---6--33--0--------------|

Then

Intro {distorted}
D--------------------------------------------------------------------|
A--------------------------------------------------------------------|
F--------------8-------------------------------8--55-----------------|
C--0----3s5s3--6--0----3s5s3---8--0----3s5s3---6--33--0-5s6s5--3-----|x2
G--0----3s5s3--6--0----3s5s3---6--0----3s5s3---6--33--0--------------|
C--0----3s5s3--6--0----3s5s3---6--0----3s5s3---6--33--0--------------|

Pre Chorus   "sick..."     "ride..."   "never..."    "back"
D--------------------------------------------------------------------|
A--------------------------------------------------------------------|
F--------------------------------------------------------------------|
C------------0-0000000-----55555--------8-------------7--------------|
G------------0-0000000-----55555--------8-------------7--------------|
C------------0-0000000-----55555--------8-------------7--------------|

Chorus                                                      "If you wanna..
D----------------------------   D----------------------------------------|
A----------------------------   A----------------------------------------|
F----------------------------   F----------------------------------------|
C-----0-----3-----8-----5----x2 C-----0-----8-----3-----5-----888-----T--|
G-----0-----3-----8-----5----   G-----0-----8-----3-----5-----888-----T--|
C-----0-----3-----8-----5----   C-----0-----8-----3-----5-----888-----T--|

Post Chorus
D--------------------------------------------------------------------|
A--------------------------------------------------------------------|
F--------------8-------------------------------8--55-----------------|
C--0----3s5s3--6--0----3s5s3---8--0----3s5s3---6--33--0-5s6s5--3-----|
G--0----3s5s3--6--0----3s5s3---6--0----3s5s3---6--33--0--------------|
C--0----3s5s3--6--0----3s5s3---6--0----3s5s3---6--33--0--------------|

Pre Chorus


Chorus


Post Chorus


Bridge
D---------------------------------------|
A---------------------------------------|
F---------------------------------------|x2
C--00pm--0pm-0pm-3----00pm-----5s6s5-3--|
G--00pm--0pm-0pm-3----00pm-----5s6s5-3--|
C--00pm--0pm-0pm-3----00pm-----5s6s5-3--|

D-------------------------------------------|
A-------------------------------------------|
F-------------------------------------------|
C--0--T--0--T--5s13----0--T--0--T--5s6s5-3--|
G--0--T--0--T--5s13----0--T--0--T--5s6s5-3--|
C--0--T--0--T--5s13----0--T--0--T--5s6s5-3--|

D----------------------------------------------|
A----------------------------------------------|
F----------------------------------------------|
C--0--T--0--T--5s13----0--T--0--T--5s6s5-3--1--| hold
G--0--T--0--T--5s13----0--T--0--T--5s6s5-3--1--|
C--0--T--0--T--5s13----0--T--0--T--5s6s5-3--1--|


Chorus                                                      "If you wanna..
D----------------------------   D----------------------------------------|
A----------------------------   A----------------------------------------|
F----------------------------   F----------------------------------------|
C-----0-----3-----8-----5----x2 C-----0-----8-----3-----5-----888-----T--|
G-----0-----3-----8-----5----   G-----0-----8-----3-----5-----888-----T--|
C-----0-----3-----8-----5----   C-----0-----8-----3-----5-----888-----T--|

repeat chorus
D----------------------------    D----------------------------------------|
A----------------------------    A----------------------------------------|
F----------------------------    F----------------------------------------|
C-----0-----3-----8-----5----x2  C-----0-----8-----3-----5-----888-----T--|
G-----0-----3-----8-----5----    G-----0-----8-----3-----5-----888-----T--|
C-----0-----3-----8-----5----    C-----0-----8-----3-----5-----888-----T--|


Closing riff
D--------------------------------------------------------------------|
A--------------------------------------------------------------------|
F--------------8-------------------------------8--55-----------------|
C--0----3s5s3--6--0----3s5s3---8--0----3s5s3---6--33--0-5s6s5--3-----|x2
G--0----3s5s3--6--0----3s5s3---6--0----3s5s3---6--33--0--------------|
C--0----3s5s3--6--0----3s5s3---6--0----3s5s3---6--33--0--------------|


                            FINISHED!

    Please let me know how it is. Enjoy, and God bless.
Tap to rate this tab
 
# A B C D E F G H I J K L M N O P Q R S T U V W X Y Z