Guitaretab - guitar tabs
Song name
# A B C D E F G H I J K L M N O P Q R S T U V W X Y Z

Decyfer Down - Fading tab

Fading
Crash
Decyfer Down

Tabbed by Aaron Van Ee
Tuning C G C F A D
I didn't do that good on the acoustic cause its really hard to hear. but i got a good 
please rate and comment!


Intro Guitar 1 (Clean)
D|----------------------------------------------------------------------|
A|----------------------------------------------------------------------|
F|----------------------------------------------------------------------|
C|-2-2-2-2-2-2-2-2-2-2-2-2-2-2-2-2-2-2-2-2------------------------------|
G|-2-2-2-2-2-2-3-3-3-3-0-0-0-0-0-2-2-2-2-2------------------------------|
C|----------------------------------------------------------------------|6x

Intro Guitar 2 (Clean)
D|-0-7-0-5-0-5-0-8-0-7-0-5-0-4-0-4h5------------------------------------|
A|----------------------------------------------------------------------|
F|----------------------------------------------------------------------|
C|----------------------------------------------------------------------|
G|----------------------------------------------------------------------|
C|----------------------------------------------------------------------|4x

Intro Guitar 1 (Distorted)
D|------------------------------------x-x-x-x-x-------------------------|
A|------------------------------------x-x-x-x-x-------------------------|
F|------------------------------------x-x-x-x-x-------------------------|
C|------------------------------------x-x-x-x-x-------------------------|
G|--------3-3-3-------------------5-5-x-x-x-x-x-------------------------|
C|--2-2-2-------2-2-2-3-3-3-2-2-2-----x-x-x-x-x-------------------------|
                                                                        |
Intro Guitar 1 (Distorted)                                              |
D|----------------------------------------------------------------------|
A|----------------------------------------------------------------------|
F|----------------------------------------------------------------------|
C|----------------------------------------------------------------------|
G|--------3-3-3-------5-5-5---------------------------------------------|
C|--2-2-2-------2-2-2--------3--2s3s6-----------------------------------|2x

Verse 1 Guitar 1 (Distorted)
D|----------------------------------------------------------------------|
A|----------------------------------------------------------------------|
F|----------------------------------------------------------------------|
C|--2h3p2---------------------------------------------------------------|
G|--2h3p2---------------------------------------------------------------|
C|--2h3p2---------------------------------------------------------------|4x
                                                                        |
Verse 1 Guitar 2 (Distorted)                                            |
D|-0-7-0-5-0-5-0-8-0-7-0-5-0-4-0-4h5------------------------------------|
A|----------------------------------------------------------------------|
F|----------------------------------------------------------------------|
C|----------------------------------------------------------------------|
G|----------------------------------------------------------------------|
C|----------------------------------------------------------------------|4x

Pre-Chorus Guitar 1 (Distorted with wah)
D|----------------------------------------------------------------------|
A|----------------------------------------------------------------------|
F|----------------------------------------------------------------------|
C|--2-0h2-2-0h2-2-0h2-2-3-----------------------------------------------|
G|--2-0h2-2-0h2-2-0h2-2-3-----------------------------------------------|
C|--2-0h2-2-0h2-2-0h2-2-3-----------------------------------------------|4x

Pre-Chorus Guitar 1 (Acoustic)
D|----------------------------------------------------------------------|
A|----------------------------------------------------------------------|
F|---------14-----------------12--11------------------------------------|
C|------12----12---12-------12--12--12-12-------------------------------|
G|----10------------------10--------------------------------------------|
C|--10------------------0-----------------------------------------------|

Chorus Guitar 1 (Distorted)
D|----------------------------------------------------------------------|
A|----------------------------------------------------------------------|
F|----------------------------------------------------------------------|
C|--2--2-2-2-2-5--5-5-5-5-5--10--10-10-10-10-10--0--0-0-0-0-0-0---------|
G|--2--2-2-2-2-5--5-5-5-5-5--10--10-10-10-10-10--0--0-0-0-0-0-0---------|
C|--2--2-2-2-2-5--5-5-5-5-5--10--10-10-10-10-10--0--0-0-0-0-0-0---------|2x

Post Chorus Guitar 1 (Distorted)
D|------------------------------------x-x-x-x-x-------------------------|
A|------------------------------------x-x-x-x-x-------------------------|
F|------------------------------------x-x-x-x-x-------------------------|
C|------------------------------------x-x-x-x-x-------------------------|
G|--------3-3-3-------------------5-5-x-x-x-x-x-------------------------|
C|--2-2-2-------2-2-2-3-3-3-2-2-2-----x-x-x-x-x-------------------------|
                                                                        |
Post Chorus Guitar 1 (Distorted)                                        |
D|----------------------------------------------------------------------|
A|----------------------------------------------------------------------|
F|----------------------------------------------------------------------|
C|----------------------------------------------------------------------|
G|--------3-3-3-------5-5-5---------------------------------------------|
C|--2-2-2-------2-2-2--------3--2s3s6-----------------------------------|2x
[ Tab from: http://www.guitaretab.com/d/decyfer-down/192318.html ]
Verse 2 Guitar 1 (Distorted)
D|------------------------------------x-x-x-x-x-------------------------|
A|------------------------------------x-x-x-x-x-------------------------|
F|------------------------------------x-x-x-x-x-------------------------|
C|------------------------------------x-x-x-x-x-------------------------|
G|--------3-3-3-------------------5-5-x-x-x-x-x-------------------------|
C|--2-2-2-------2-2-2-3-3-3-2-2-2-----x-x-x-x-x-------------------------|
    * * * * * * * * * * * * * * * * *
Verse 2 Guitar 1 (Distorted)
D|----------------------------------------------------------------------|
A|----------------------------------------------------------------------|
F|----------------------------------------------------------------------|
C|----------------------------------------------------------------------|
G|--------3-3-3-------5-5-5---------------------------------------------|
C|--2-2-2-------2-2-2--------3--2s3s6-----------------------------------|
    * * * * * * * * * * * *  *  * * *
Pre-Chorus Guitar 1 (Distorted with wah)
D|----------------------------------------------------------------------|
A|----------------------------------------------------------------------|
F|----------------------------------------------------------------------|
C|--2-0h2-2-0h2-2-0h2-2-3-----------------------------------------------|
G|--2-0h2-2-0h2-2-0h2-2-3-----------------------------------------------|
C|--2-0h2-2-0h2-2-0h2-2-3-----------------------------------------------|4x

Pre-Chorus Guitar 1 (Acoustic)
D|----------------------------------------------------------------------|
A|----------------------------------------------------------------------|
F|---------14-----------------12--11------------------------------------|
C|------12----12---12-------12--12--12-12-------------------------------|
G|----10------------------10--------------------------------------------|
C|--10------------------0-----------------------------------------------|

Chorus Guitar 1 (Distorted)
D|----------------------------------------------------------------------|
A|----------------------------------------------------------------------|
F|----------------------------------------------------------------------|
C|--2--2-2-2-2-5--5-5-5-5-5--10--10-10-10-10-10--0--0-0-0-0-0-0---------|
G|--2--2-2-2-2-5--5-5-5-5-5--10--10-10-10-10-10--0--0-0-0-0-0-0---------|
C|--2--2-2-2-2-5--5-5-5-5-5--10--10-10-10-10-10--0--0-0-0-0-0-0---------|2x

Bridge Guitar 1 (Distorted)
D|----------------------------------------------------------------------|
A|----------------------------------------------------------------------|
F|----------------------------------------------------------------------|
C|--2-2--2-2--2-2--2-2--2-2--2-2--2-2--2-2-2h3--------------------------|
G|--2-2--2-2--2-2--2-2--2-2--2-2--2-2--2-2-2h3--5p3---------------------|
C|--2-2--2-2--2-2--2-2--2-2--2-2--2-2--2-2-2h3-----5p4p2----------------|
    * *  * *  * *  * * * *   * *  * *  * * * *
Bridge Guitar 1 (Distorted)
D|----------------------------------------------------------------------|
A|----------------------------------------------------------------------|
F|----------------------------------------------------------------------|
C|--2-2--2-2--2-2--2-2--2-2--2-2--2-2--2-2--0---------------------------|
G|--2-2--2-2--2-2--2-2--2-2--2-2--2-2--2-2--0---------------------------|
C|--2-2--2-2--2-2--2-2--2-2--2-2--2-2--2-2--0---------------------------|
    * *  * *  * *  * * * *   * *  * *  * *  *
Bridge Guitar 1 (Distorted)
D|----------------------------------------------------------------------|
A|----------------------------------------------------------------------|
F|----------------------------------------------------------------------|
C|--2-2--2-2--2-2--2-2--2-2--2-2--2-2--2-2-2h3--------------------------|
G|--2-2--2-2--2-2--2-2--2-2--2-2--2-2--2-2-2h3--5p3---------------------|
C|--2-2--2-2--2-2--2-2--2-2--2-2--2-2--2-2-2h3-----5p4p2----------------|
    * *  * *  * *  * * * *   * *  * *  * * * *
Bridge Guitar 1 (Distorted)
D|----------------------------------------------------------------------|
A|----------------------------------------------------------------------|
F|----------------------------------------------------------------------|
C|--2-2--2-2--2-2--2-2--2-2--2-2--2-2--2-2--0---------------------------|
G|--2-2--2-2--2-2--2-2--2-2--2-2--2-2--2-2--0---------------------------|
C|--2-2--2-2--2-2--2-2--2-2--2-2--2-2--2-2--0---------------------------|
    * *  * *  * *  * * * *   * *  * *  * *  *

Pre-Chorus Guitar 1 (Acoustic)
D|----------------------------------------------------------------------|
A|----------------------------------------------------------------------|
F|---------14-----------------12--11------------------------------------|
C|------12----12---12-------12--12--12-12-------------------------------|
G|----10------------------10--------------------------------------------|
C|--10------------------0-----------------------------------------------|

Pre-Chorus Guitar 1 (Distorted)
D|----------------------------------------------------------------------|
A|----5--5--5--5-----------8-8------------------------------------------|
F|---4--4--4--4-----------7-7----4-5-4-2--------------------------------|
C|----------------------------------------------------------------------|
G|----------------------------------------------------------------------|
C|--2--------------------5----------------------------------------------|

Pre-Chorus Guitar 1 (Acoustic)
D|----------------------------------------------------------------------|
A|----------------------------------------------------------------------|
F|---------14-----------------12--11------------------------------------|
C|------12----12---12-------12--12--12-12-------------------------------|
G|----10------------------10--------------------------------------------|
C|--10------------------0-----------------------------------------------|

Pre-Chorus Guitar 1 (Distorted)
D|----------------------------------------------------------------------|
A|----5--5--5--5-----------8-8------------------------------------------|
F|---4--4--4--4-----------7-7-------------------------------------------|
C|---------------------------------10-10-10-10-10-10--0-0-0-0-0-0-0-----|
G|---------------------------------10-10-10-10-10-10--0-0-0-0-0-0-0-----|
C|--2--------------------5---------10-10-10-10-10-10--0-0-0-0-0-0-0-----|

Chorus Guitar 1 (Distorted)
D|----------------------------------------------------------------------|
A|----------------------------------------------------------------------|
F|----------------------------------------------------------------------|
C|--2--2-2-2-2-5--5-5-5-5-5--10--10-10-10-10-10--0--0-0-0-0-0-0---------|
G|--2--2-2-2-2-5--5-5-5-5-5--10--10-10-10-10-10--0--0-0-0-0-0-0---------|
C|--2--2-2-2-2-5--5-5-5-5-5--10--10-10-10-10-10--0--0-0-0-0-0-0---------|2x

Post Chorus Guitar 1 (Distorted)
D|------------------------------------x-x-x-x-x-------------------------|
A|------------------------------------x-x-x-x-x-------------------------|
F|------------------------------------x-x-x-x-x-------------------------|
C|------------------------------------x-x-x-x-x-------------------------|
G|--------3-3-3-------------------5-5-x-x-x-x-x-------------------------|
C|--2-2-2-------2-2-2-3-3-3-2-2-2-----x-x-x-x-x-------------------------|
                                                                        |
Post Chorus Guitar 1 (Distorted)                                        |
D|----------------------------------------------------------------------|
A|----------------------------------------------------------------------|
F|----------------------------------------------------------------------|
C|----------------------------------------------------------------------|
G|--------3-3-3-------5-5-5---------------------------------------------|
C|--2-2-2-------2-2-2--------3--2s3s6-----------------------------------|2x

End
Related for Fading tab
Fading chords by Decyfer Down