Song name
# A B C D E F G H I J K L M N O P Q R S T U V W X Y Z

Decyfer Down - Best I Can tab

The way I am, I just have to know how the band plays the song,
so that's what I've tried to do here. I did my best basing it
off of these two videos. http://www.youtube.com/watch?v=OxDUf1UHuMA and 
If anyone has any corrections to make, let me know and I'll change it.
yukimaruyoshida@live.com


Best I Can- Decyfer Down

Intro
E|----------------------------------------|
B|----------------------------------------|
G|----------------------------------------|
D|-5555-555-555555555-5555-555-5-55555555-|x3
A|-0000-222-333333333-0000-222-0-33333333-|
D|-------------------------------33333333-|

Pre-Chorus
E|----------------------------------------|
B|----------------------------------------|
G|---5----5----5----5----5----------------|
D|--5-5--5-5--5-5--5-5--5-5---7----5-5~---|
A|-3----2----0----0----3-----7-7--5--5~---|
D|--------------------------7----5---5~---|

Chorus
E|---------------------------------------------------|
B|---------------------------------------------------|
G|-5--5------------------5--5------------------------|
D|-5--3--77-7--55-5--3---5--3--77-7--55-5--3--7-5-3--|
A|-3--3--77-7--55-5--3---3--3--77-7--55-5--3--7-5-3--|
D|----3--77-7--55-5--3------3--77-7--55-5--3--7-5-3--|

Bridge
E|------------------------------------------|
B|------------------------------------------|
G|------------------------------------------|
D|-7--5--3-00x3--7--5--0x0-00103~--33333333-|
A|-7--5--3-00x3--7--5--0x0-00103~--33333333-|
D|-7--5--3-00x3--7--5--0x0-00103~--33333333-|
                                   ......
Tap to rate this tab
 
# A B C D E F G H I J K L M N O P Q R S T U V W X Y Z