Song name
# A B C D E F G H I J K L M N O P Q R S T U V W X Y Z

Decyfer Down - Ride With Me tab

 My first tab ;) Please rate and comment
For any questions email me at hassan.crane@hotmail.com
Decyfer Down
Crash
Ride With Me

X-Dead Note   \-Slide  **-Palm Mute
Guitar 1- Dist. Drop C
Guitar 2- Clean. Drop C

Intro
Guitar 2
D--------------------------------------------------------------------|
A--------------------------------------------------------------------|
F----------8----------8----------8--5-5------------------------------|x2
C--0--353--8--0--353--8--0--353--8--5-5------------------------------|
G--0--353--6--0--353--6--0--353--6--3-3------------------------------|
C--0--353-----0--353-----0--353---------0-5~-4~----------------------|

Guitar 1
D--------------------------------------------------------------------|
A--------------------------------------------------------------------|
F-------------8----------8----------8--5-5---------------------------|x2
C-00|-0--353--8--0--353--8--0--353--8--5-5---------------------------|
G-00|-0--353--6--0--353--6--0--353--6--3-3---------------------------|
C-00|-0--353-----0--353-----0--353---------0-5~-4~-------------------|

Verse
Guitar 1
D--------------------------------------------------------------------|
A--------------------------------------------------------------------|
F--------------------------------------------------------------------|
C-0-00-00-00-05-55-58XX7---------------------------------------------|
G-0-00-00-00-05-55-58XX7---------------------------------------------|
C-0-00-00-00-05-55-58XX7---------------------------------------------|

Chorus
Guitar 1
D--------------------------------------------------------------------|
A--------------------------------------------------------------------|
F--------------------------------------------------------------------|
C-0000/3333/8888/5555/0000/3333/8888/5555/0000/8888/3333/9999--------|
G-0000/3333/8888/5555/0000/3333/8888/5555/0000/8888/3333/9999--------|
C-0000/3333/8888/5555/0000/3333/8888/5555/0000/8888/3333/9999--------|

D--------------------------------------------------------------------|
A--------------------------------------------------------------------|
F--------------------------------------------------------------------|
C-88888888/1010101010------------------------------------------------|
G-88888888/1010101010------------------------------------------------|
C-88888888/1010101010------------------------------------------------|

Intro- x1
Verse
Chorus
Intro- x1
Bridge
Guitar 1
D--------------------------------------------------------------------|
A--------------------------------------------------------------------|
F--------------------------------------------------------------------|
C--------------3h2p3-------------------3h2p3-------------------------|
G-00-0-0-03-00------3p2p0-00-0-0-03-00------3p2p0--------------------|
C-00-0-0-03-00------------00-0-0-03-00-------------------------------|
  ** * * *  **            ** * * *  **

D--------------------------------------------------------------------|
A--------------------------------------------------------------------|
F--------------------------------------------------------------------|
C-0-10-0-8-5/13-0-10-0-8-5\3-0-10-0-8-5/13-0-10-0-8-5\3-1~~~---------|
G-0-10-0-8-5/13-0-10-0-8-5\3-0-10-0-8-5/13-0-10-0-8-5\3-1~~~---------|
C-0-10-0-8-5/13-0-10-0-8-5\3-0-10-0-8-5/13-0-10-0-8-5\3-1~~~---------|

Chorus- x2
Ending- Intro - x2
Tap to rate this tab
 
# A B C D E F G H I J K L M N O P Q R S T U V W X Y Z