Song name
# A B C D E F G H I J K L M N O P Q R S T U V W X Y Z

Decyfer Down - Forever With You tab

                                          .:Decyfer Down:.
                                        .:Forever With You:.
By : Satsana.
======================================================================================
Tuning : Standard (E Tuning)
======================================================================================

>>>Intro + Verse:

    Intro                              
e|-------3-----3---------3-3-1-0--------------------------------------3---|
B|-----1-------------1-----------0------1p0------1p0----1p0---------1-----|
G|-----------0-----0----------------------------------------2p0-----------|
D|---3-----3----------------------------------------------------3-3-------|
A|----------------------------------0-0-----------------------------------|
E|---------------3---------------------------3-3--------------------------|

e|--------3----3-1-0------------------------------------------------------|
B|------1------------0----0---0-3--1---1-3--------------------------------|
G|--------------------------0--------0------------------------------------|
D|------------------------------------------------------------------------|
A|------------------------2--------3--------------------------------------|
E|--3-3-------------------------------------------------------------------|
             Like Shooting Stars..
e||-------3--------3---3-1-0--------------------------------------3-------|
B||-----1--------1-----------0------1p0------1p0---1p0----------1---------|
G||-----------------------------------------------------2p0---------------|
D||:--------------------------------------------------------3-3-----------|
A||-3-3-------------------------0-0---------------------------------------|
E||----------3-3-------------------------3-3------------------------------|
                                                  You're not so far away.. 
e|--------3---3-1-0-----------------------|-------------------------------||
B|------1-----------0--0---0-3---1---1-3--|----1~-----1~------1~----------||
G|-----------------------0---------0------|----0~-----0~------0~----------||
D|---------------------------------------:|----2~-----2~------2~----------||
A|---------------------2---------3--------|----3~-----3~------3~----------||
E|--3-3-----------------------------------|-------------------------------||

        Like shooting stars
        How brief we are
        I wish this moment could last forever
        Here with you
        I am made new
        I want to live like every breath matters
        You're not so far away
        Just hear me when I say

========================================================================================
>>>Chorus:

       Am      F
        I wanna love what you love
       C         G      
        I want to see what you see
      Am         F              C         G
        I want a heart that burns like a fire in me
      Am            F
        I want your light in my life
       C          G     
        I want my heart renewed
       C         G
        Here I am
      
        Forever with you

=======================================================================================
>>>Verse:

e|-------3--------3---3-1-0--------------------------------------3-------|
B|-----1--------1-----------0------1p0------1p0---1p0----------1---------|
G|-----------------------------------------------------2p0---------------|
D|---------------------------------------------------------3-3-----------|
A|-3-3-------------------------0-0---------------------------------------|
E|----------3-3-------------------------3-3------------------------------|
                                                   
e|--------3---3-1-0-----------------------------------------------------||
B|------1-----------0--0---0-3---1---1-3--------------------------------||
G|-----------------------0---------0------------------------------------||
D|----------------------------------------------------------------------||
A|---------------------2---------3--------------------------------------||
E|--3-3-----------------------------------------------------------------||
             The Falling Rain..
e||-------3--------3---3-1-0--------------------------------------3------|
B||-----1--------1-----------0------1p0------1p0---1p0----------1--------|
G||-----------------------------------------------------2p0--------------|
D||:--------------------------------------------------------3-3----------|
A||-3-3-------------------------0-0--------------------------------------|
E||----------3-3-------------------------3-3-----------------------------|
                                                    You're not so far away..
e|--------3---3-1-0-----------------------|-----------------------------||
B|------1-----------0--0---0-3---1---1-3--|-----1~----1~----1~----------||
G|-----------------------0---------0------|-----0~----0~----0~----------||
D|---------------------------------------:|-----2~----2~----2~----------||
A|---------------------2---------3--------|-----3~----3~----3~----------||
E|--3-3-----------------------------------|-----------------------------||

        The falling rain
        Can bring a change
        I never knew how far that I could fall
        I can hardly wait
        'Til I see you face to face
        I can't believe your love remains the same
        You're not so far away
        Just hear me when I say

========================================================================================
>>>Chorus:

       Am      F
        I wanna love what you love
       C         G      
        I want to see what you see
      Am         F              C         G
        I want a heart that burns like a fire in me
      Am            F
        I want your light in my life
       C          G     
        I want my heart renewed
       C         G
        Here I am
      
        Forever with you

======================================================================================
>>>Bridge:
  (those are all 13s 12s 11s and 10s etc, not 1s and 2s etc..) 
e|-1313131313131313--12121212--8888--1010101010101010------------------|
B|----------------------------------------------------88888888---------|
G|---------------------------------------------------------------------|
D|---------------------------------------------------------------------|
A|---------------------------------------------------------------------|
E|---------------------------------------------------------------------|

e|-1313131313131313--12121212--8888--10101010-8888-1212121212121212----|
B|---------------------------------------------------------------------|
G|---------------------------------------------------------------------|
D|---------------------------------------------------------------------|
A|---------------------------------------------------------------------|
E|---------------------------------------------------------------------|

e|-13p12--15----13p12---------13p12--15----13p12-----------------------|
B|------13-----------13~-----------13-----------13~--------------------|
G|---------------------------------------------------------------------|
D|---------------------------------------------------------------------|
A|---------------------------------------------------------------------|
E|---------------------------------------------------------------------|
          (this is tapping, you tap with the right hand the 15s)
e||---12h13p12h13-15-12h13p12h13-15-12h13p12h13-15---------------------||
B||--------------------------------------------------------------------||
G||--------------------------------------------------------------------||
D||:------------------------------------------------------------------:||
A||--------------------------------------------------------------------||
E||--------------------------------------------------------------------||

(this just translates the background music to guitar)
e|---12~--------10~--------8~------------------------------------------|
B|----------------------------------8~--5~------1~---------------------|
G|----------------------------------------------------5s7~----4~-------|
D|---------------------------------------------------------------------|
A|---------------------------------------------------------------------|
E|---------------------------------------------------------------------|

       Am                         F
        Now that I am here with you
                                  Am
        After all that I've been through
       G                         Am
        I just can't live without
                                F
        The grace you gave to me
                             Am
        Now I see what you see
                         G
        Your beautiful life forever in me
======================================================================================
>>>Chorus + Outro:

       Am      F
        I wanna love what you love
       C         G      
        I want to see what you see
      Am         F              C         G
        I want a heart that burns like a fire in me
      Am            F
        I want your light in my life
       C          G     
        I want my heart renewed
       C         G
        Here I am
       C         G
        Here I am
       C         G
        Here I am
      
        Forever with you
you..
e|-------3--------3---3-1-0--------------------------------------3-------|
B|-----1--------1-----------0------1p0------1p0---1p0----------1---------|
G|-----------------------------------------------------2p0---------------|
D|---------------------------------------------------------3-3-----------|
A|-3-3-------------------------0-0---------------------------------------|
E|----------3-3-------------------------3-3------------------------------|
                                                   
e|--------3---3-1-0-----------------------------------------------------||
B|------1-----------0--0---0-3---1~-------------------------------------||
G|-----------------------0-------0~-------------------------------------||
D|-------------------------------2~-------------------------------------||
A|---------------------2---------3~-------------------------------------||
E|--3-3-----------------------------------------------------------------||

===================================================================================
Satsana.
Tap to rate this tab
 
# A B C D E F G H I J K L M N O P Q R S T U V W X Y Z