Song name
# A B C D E F G H I J K L M N O P Q R S T U V W X Y Z

Decyfer Down - Fight Like This tab

Decyfer Down                 *UPDATE 6/5/2008 UPDATE*
Fight Like This
Tabbed by U B the band
Tuning Bb F Bb Eb Ab C

Legend:
\-slide down                      /-slide up
b-bend                            h-hammer on
p-pull off                        *-harmonic
pm-palm mute

Intro Guitar 1 (Chris) 00:00
 F|-----------------------------------------------------|
 C|-----------------------------------------------------|
Ab|-----------------------------------------------------|
Eb|-----------------------------------------------------|
Bb|--x-x---2-x-x---2-------6b(7)r6-(7)r6----------------|
 F|--x-x---2-x-x---2------------------------------------|
Bb|--x-x---2-x-x---2------------------------------------|

Intro Guitar 2 (Brandon) 00:00
 C|----10--------10--------10--------10--------10-10----|
Ab|--------11--------11--------11--------11---------11--|
Eb|--9---------9---------9---------9---------9----------|
Bb|-----------------------------------------------------|
 F|-----------------------------------------------------|
Bb|-----------------------------------------------------|

Chris 00:04
 F|-----------------------------------------------------|
 C|-----------------------------------------------------|
Ab|-----------------------------------------------------|
Eb|-----------------------------------------------------|
Bb|--x-x---0-x-x---0-------4b(5)r4-(5)r4----------------|
 F|--x-x---0-x-x---0------------------------------------|
Bb|--x-x---0-x-x---0------------------------------------|

Brandon 00:04
 C|-----------------------------------------------------|
Ab|----9--9-----7--------6--------6--------6b(7)r6------|
Eb|--9-------9-----9--9-----9--9-----9--9-----------9---|
Bb|-----------------------------------------------------|
 F|-----------------------------------------------------|
Bb|-----------------------------------------------------|

Chris 00:09
 F|-----------------------------------------------------|
 C|-----------------------------------------------------|
Ab|-----------------------------------------------------|
Eb|-----------------------------------------------------|
Bb|--x-x---2-x-x---2-------6b(7)r6-(7)r6----------------|
 F|--x-x---2-x-x---2------------------------------------|
Bb|--x-x---2-x-x---2------------------------------------|

Brandon 00:09
 C|----10--------10--------10--------10--------10-10----|
Ab|--------11--------11--------11--------11---------11--|
Eb|--9---------9---------9---------9---------9----------|
Bb|-----------------------------------------------------|
 F|-----------------------------------------------------|
Bb|-----------------------------------------------------|

Chris 00:13
 F|-----------------------------------------------------|
 C|-----------------------------------------------------|
Ab|-----------------------------------------------------|
Eb|-----------------------------------------------------|
Bb|--x-x---0-x-x---0-------4b(5)r4-(5)r4----------------|
 F|--x-x---0-x-x---0------------------------------------|
Bb|--x-x---0-x-x---0------------------------------------|

Brandon 00:13
 C|-----------------------------------------------------|
Ab|----9--9-----7--------6------------------------------|
Eb|--9-------9-----9--9---------------------------------|
Bb|-----------------------------------------------------|
 F|-----------------------------------------------------|
Bb|-----------------------------------------------------|

Guitars 1 and 2: 00:18
 C|-----------------------------------------------------|
Ab|--5--------------------------------------------------|
Eb|--x--------------------------------------------------|
Bb|--3---0--2-p0--2-0-2--6--0--2-0-2--0--0------0-------|
 F|------0--2-p0--2-0-2--6--0--2-0-2--0--0--2b--0--2b---|
Bb|------0--2-p0--2-0-2--6--0--2-0-2--0--0--2b--0--2b---|x2

Guitar 2 after 2nd time around 00:27
 C|--------------------------------10-10-10-10-10-12-12-|
Ab|--9--9--9--9--9--9---11--9--8------------------------|
Eb|-----------------------------------------------------|
Bb|-----------------------------------------------------|
 F|-----------------------------------------------------|
Bb|-----------------------------------------------------|

Verse Guitar 1 00:36
 F|---------------------------------------------|
 C|---------------------------------------------|
Ab|---------------------------------------------|
Eb|---------------------------------------------|
Bb|---------------------------------------------|
 F|--0--0-2--0--0-2--2-2-2-2/3333333333-----3---|
Bb|--0--0-2--0--0-2--2-2-2-2/3333333333-3h5-3---|
     pmpm    pmpm    pmpmpmpmpmpmpmpmpm

00:40
 F|---------------------------------------------|
 C|---------------------------------------------|
Ab|---------------------------------------------|
Eb|---------------------------------------------|
Bb|---------------------------------------------|
 F|--0--0-2--0--0-2--2-2-2-2/3333333333--3h5-3--|
Bb|--0--0-2--0--0-2--2-2-2-2/3333333333---------|
     pmpm    pmpm    pmpmpmpmpmpmpmpmpm

00:45
 F|---------------------------------------------|
 C|---------------------------------------------|
Ab|---------------------------------------------|
Eb|---------------------------------------------|
Bb|---------------------------------------------|
 F|--0--0-2--0--0-2--2-2-2-2/3333333333-----3---|
Bb|--0--0-2--0--0-2--2-2-2-2/3333333333-3h5-3---|
     pmpm    pmpm    pmpmpmpmpmpmpmpmpm

00:50
 F|---------------------------------------------|
 C|---------------------------------------------|
Ab|---------------------------------------------|
Eb|---------------------------------------------|
Bb|---------------------------------------------|
 F|--0--0-2--0--0-2--2-2-2-2/3333333333--3h5-3--|
Bb|--0--0-2--0--0-2--2-2-2-2/3333333333---------|
     pmpm    pmpm    pmpmpmpmpmpmpmpmpm


Pre Chorus 1: Both Guitars 00:54
 C|-----------------------------------------|
Ab|-----------------------------------------|
Eb|-----------------------------------------|
Bb|--3---------------------0----------------|
 F|--3---------------------0----------------|
Bb|--3---------------------0----------------|

Chorus: 00:59
 C|----------------------------------------||
Ab|----------------------------------------||
Eb|----------------------------------------||
Bb|--777--10-10-10--0-0-0-0-0-0-0-0-0-0----||
 F|--777--10-10-10--0-0-0-0-0-0-0-0-0-0----||play
Bb|--777--10-10-10--0-0-0-0-0-0-0-0-0-0----||
                                            |4
 C|----------------------------------------||
Ab|----------------------------------------||times
Eb|----------------------------------------||
Bb|--777--12-12-12-10-10-10-10-10-5-5-5-5--||
 F|--777--12-12-12-10-10-10-10-10-5-5-5-5--||
Bb|--777--12-12-12-10-10-10-10-10-5-5-5-5--||

From Chorus to Verse 2: 01:34
 C|-----------------------------------------------------|
Ab|--5--------------------------------------------------|
Eb|--x--------------------------------------------------|
Bb|--3---0--2-p0--2-0-2--6--0--2-0-2--0--0------0-------|
 F|------0--2-p0--2-0-2--6--0--2-0-2--0--0--2b--0--2b---|
Bb|------0--2-p0--2-0-2--6--0--2-0-2--0--0--2b--0--2b---|x2

Verse2 Guitar 1 01:43
 F|---------------------------------------------|
 C|---------------------------------------------|
Ab|---------------------------------------------|
Eb|---------------------------------------------|
Bb|---------------------------------------------|
 F|--0--0-2--0--0-2--2-2-2-2/3333333333-----3---|
Bb|--0--0-2--0--0-2--2-2-2-2/3333333333-3h5-3---|
     pmpm    pmpm    pmpmpmpmpmpmpmpmpm

01:48
 F|---------------------------------------------|
 C|---------------------------------------------|
Ab|---------------------------------------------|
Eb|---------------------------------------------|
Bb|---------------------------------------------|
 F|--0--0-2--0--0-2--2-2-2-2/3333333333--3h5-3--|
Bb|--0--0-2--0--0-2--2-2-2-2/3333333333---------|
     pmpm    pmpm    pmpmpmpmpmpmpmpmpm

01:52
 F|---------------------------------------------|
 C|---------------------------------------------|
Ab|---------------------------------------------|
Eb|---------------------------------------------|
Bb|---------------------------------------------|
 F|--0--0-2--0--0-2--2-2-2-2/3333333333-----3---|
Bb|--0--0-2--0--0-2--2-2-2-2/3333333333-3h5-3---|
     pmpm    pmpm    pmpmpmpmpmpmpmpmpm

01:57
 F|---------------------------------------------|
 C|---------------------------------------------|
Ab|---------------------------------------------|
Eb|---------------------------------------------|
Bb|---------------------------------------------|
 F|--0--0-2--0--0-2--2-2-2-2/3333333333--3h5-3--|
Bb|--0--0-2--0--0-2--2-2-2-2/3333333333---------|
     pmpm    pmpm    pmpmpmpmpmpmpmpmpm


Pre chorus 2 Guitar 1: 02:01/02:06
 F|-------------------------------------||
 C|-------------------------------------||
Ab|-------------------------------------||
Eb|-------------------------------------||
Bb|-------------------------------------||
 F|--0-h2----0-h2-0-h3--0-h2-----0h2h3--||play
Bb|--0-h2----0-h2-0-h3--0-h2-----0h2h3--||
                                         |2
Guitar 2:                                |
 C|-------------------------------------||times
Ab|-------------------------------------||
Eb|-------------------------------------||
Bb|-------6------------------6b---------||
 F|-------------------------------------||
Bb|-------------------------------------||

Chorus: 02:10
 C|----------------------------------------||
Ab|----------------------------------------||
Eb|----------------------------------------||
Bb|--777--10-10-10--0-0-0-0-0-0-0-0-0-0----||
 F|--777--10-10-10--0-0-0-0-0-0-0-0-0-0----||play
Bb|--777--10-10-10--0-0-0-0-0-0-0-0-0-0----||
                                            |4
 C|----------------------------------------||
Ab|----------------------------------------||times
Eb|----------------------------------------||
Bb|--777--12-12-12-10-10-10-10-10-5-5-5-5--||
 F|--777--12-12-12-10-10-10-10-10-5-5-5-5--||
Bb|--777--12-12-12-10-10-10-10-10-5-5-5-5--||

End of Chorus: Both Guitars 02:46
 C|----------------------------------------|
Ab|----------------------------------------|
Eb|----------------------------------------|
Bb|--3--------------------0----------------|
 F|--3--------------------0----------------|
Bb|--3--------------------0----------------|

Bridge: palm muted 02:50
 C|----------------------------------------|
Ab|----------------------------------------|
Eb|----------------------------------------|
Bb|----------------------------------------|
 F|--1-------------------------------------|
Bb|---------0---2---0---2---0---2h3----0---|x4

Bridge: palm muted 02:59 (hit each note 2 times
 C|----------------------------------------|
Ab|----------------------------------------|
Eb|----------------------------------------|
Bb|----------------------------------------|
 F|--1-------------------------------------|
Bb|----------0---2---0---2---0---2h3---0---|x4

Guitar 1: 03:07
 F|----------------------------------------|
 C|----------------------------------------|
Ab|----------------------------------------|
Eb|----------------------------------------|
Bb|--5*------------------------------------|
 F|----------------------------------------|
Bb|----------------------------------------|

Guitar 1 and 2: 03:08                     -|
 C|---------------------------------------||
Ab|---------------------------------------||
Eb|---------------------------------------||
Bb|--8\------0---2---0---2p0---2h3---2p0--||
 F|--8\------0---2---0---2p0---2h3---2p0--||play
Bb|--8\------0---2---0---2p0---2h3---2p0--||
                                           |2
 C|---------------------------------------||
Ab|---------------------------------------||times
Eb|---------------------------------------||
Bb|--8\------0---2-----x--x-----x----x----||
 F|--8\------0---2-----x--x-----x----x----||
Bb|--8\------0---2-----x--x-----x----x----||
                                          -|
Guitars 1 and 2 Continued
 C|---------------------------------------|
Ab|---------------------------------------|
Eb|---------------------------------------|
Bb|--8\------0---2---0---2p0---2h3---2p0--|
 F|--8\------0---2---0---2p0---2h3---2p0--|
Bb|--8\------0---2---0---2p0---2h3---2p0--|

Guitar 1:
 F|------------------| Guitar 2:
 C|------------------|  C|----------------|
Ab|------------------| Ab|----------------|
Eb|------------------| Eb|----------------|
Bb|--8\--0--14\-2----| Bb|--8\--0--2------|
 F|--8\--0--14\-2----|  F|--8\--0--2------|
Bb|--8\--0--14\-2----| Bb|--8\--0--2------|

Chorus: 03:27
 C|----------------------------------------|
Ab|----------------------------------------|
Eb|----------------------------------------|
Bb|--777--10-10-10--0-0-0-0-0-0-0-0-0-0----|
 F|--777--10-10-10--0-0-0-0-0-0-0-0-0-0----|
Bb|--777--10-10-10--0-0-0-0-0-0-0-0-0-0----|

 C|----------------------------------------|
Ab|----------------------------------------|
Eb|----------------------------------------|
Bb|--777--12-12-12-10-10-10-10-10-5-5-5-5--|
 F|--777--12-12-12-10-10-10-10-10-5-5-5-5--|
Bb|--777--12-12-12-10-10-10-10-10-5-5-5-5--|

Then: 03:36
 C|----------------------------------------|
Ab|----------------------------------------|
Eb|----------------------------------------|
Bb|--777--10-10-10--0-0-0-0-0-0-0-0-0-0----|
 F|--777--10-10-10--0-0-0-0-0-0-0-0-0-0----|
Bb|--777--10-10-10--0-0-0-0-0-0-0-0-0-0----|

 C|--------------------------------------------|
Ab|--------------------------------------------|
Eb|--------------------------------------------|
Bb|--777--12-12-12-10-10-10-10-10-14-14-14-14--|
 F|--777--12-12-12-10-10-10-10-10-14-14-14-14--|
Bb|--777--12-12-12-10-10-10-10-10-14-14-14-14--|

Then back to normal: 03:45                    -|
 C|----------------------------------------|   |
Ab|----------------------------------------|   |
Eb|----------------------------------------|   |
Bb|--777--10-10-10--0-0-0-0-0-0-0-0-0-0----|   |
 F|--777--10-10-10--0-0-0-0-0-0-0-0-0-0----|   |play
Bb|--777--10-10-10--0-0-0-0-0-0-0-0-0-0----|   |
                                               |2
 C|----------------------------------------|   |
Ab|----------------------------------------|   |times
Eb|----------------------------------------|   |
Bb|--777--12-12-12-10-10-10-10-10-5-5-5-5--|   |
 F|--777--12-12-12-10-10-10-10-10-5-5-5-5--|   |
Bb|--777--12-12-12-10-10-10-10-10-5-5-5-5--|   |
                                              -|

Outro Guitar 1: 04:02
 C|-----------------------------------------------------|
Ab|--5--------------------------------------------------|
Eb|--x--------------------------------------------------|
Bb|--3---0--2-p0--2-0-2--6--0--2-0-2--0--0------0-------|
 F|------0--2-p0--2-0-2--6--0--2-0-2--0--0--2b--0--2b---|
Bb|------0--2-p0--2-0-2--6--0--2-0-2--0--0--2b--0--2b---|

Guitar 2:
 C|-----------------------------------------------------|
Ab|-----------------------------------------------------|
Eb|--10---------------------13---------------------12---|
Bb|---x----------------------x----------------------x---|
 F|---8---------------------11---------------------14---|
Bb|-----------------------------------------------------|

Guitar 1: Continued
 C|-----------------------------------------------------|
Ab|--5--------------------------------------------------|
Eb|--x--------------------------------------------------|
Bb|--3---0--2-p0--2-0-2--6--0--2-0-2--0--0------0-------|
 F|------0--2-p0--2-0-2--6--0--2-0-2--0--0--2b--0--2b---|
Bb|------0--2-p0--2-0-2--6--0--2-0-2--0--0--2b--0--2b---|

Guitar 2: Continued
 C|-----------------------------------------------------|
Ab|-----------------------------------------------------|
Eb|-----------------------13---------------------10-----|
Bb|------------------------x----------------------x-----|
 F|-----------------------11----------------------8-----|
Bb|-----------------------------------------------------|

Guitar 1: 04:11
 C|-----------------------------------------------------|
Ab|--5--------------------------------------------------|
Eb|--x--------------------------------------------------|
Bb|--3---0--2-p0--2-0-2--6--0--2-0-2--0--0------0-------|
 F|------0--2-p0--2-0-2--6--0--2-0-2--0--0--2b--0--2b---|
Bb|------0--2-p0--2-0-2--6--0--2-0-2--0--0--2b--0--2b---|x2

Guitar 2: 04:11
 C|--------------------------------10-10-10-10-10-12-12-|
Ab|--9--9--9--9--9--9---11--9--8------------------------|
Eb|-----------------------------------------------------|
Bb|-----------------------------------------------------|
 F|-----------------------------------------------------|
Bb|-----------------------------------------------------|

Finished!
Tap to rate this tab
 
# A B C D E F G H I J K L M N O P Q R S T U V W X Y Z