Song name
# A B C D E F G H I J K L M N O P Q R S T U V W X Y Z

Decyfer Down - Life Again tab

Decyfer Down (www.decyferdown.com)
Life Again
Tabbed by U B the band
Tuning(s) Guitar 1 - Bb F Bb Eb Ab C F (Chris)
          Guitar 2 - Bb F Bb Eb Ab C  (Brandon)

Legend:
p-pull off
h-hammer on
b-bend
/-slide up
*-harmonic
pm-palm mute
x-scratch
\-slide down

Chris uses a 7 string and Brandon uses a 6 string (tunings are the same).

Intro: Guitar 1 (Chris) 00:00
 F|-----------------------------------|
 C|-----------------------------------|
Ab|-----------------------------------|
Eb|-----------------------------------|
Bb|-----------------------------------|
 F|--5-3-6p5-3h5-6p5-3-5-3-6p5-3h5-1--|
Bb|--5-3-6p5-3h5-6p5-3-5-3-6p5-3h5-1--|

Intro: Guitar 2 (Brandon) 00:03
 C|--3--------6b--|
Ab|----0----------|
Eb|------3--------|
Bb|---------------|
 F|---------------|
Bb|---------------|
                 ^---then 4 slight bends (7)
Guitar 1: 00:05
 F|----------------------------|
 C|----------------------------|
Ab|----------------------------|
Eb|----------------------------|
Bb|----------------------------|
 F|--5-3-6p5-3h5-6p5-8-888888--|
Bb|--5-3-6p5-3h5-6p5-8-888888--|

Guitars 1 and 2: 00:10
 C|-----------------------------------|
Ab|-----------------------------------|
Eb|-----------------------------------|
Bb|--5-3-6p5-3h5-6p5-3-5-3-6p5-3h5-1--|
 F|--5-3-6p5-3h5-6p5-3-5-3-6p5-3h5-1--|
Bb|--5-3-6p5-3h5-6p5-3-5-3-6p5-3h5-1--|

Guitars 1 and 2: 00:15
 C|----------------------------|
Ab|----------------------------|
Eb|----------------------------|
Bb|--5-3-6p5-3h5-6p5-8-888888--|
 F|--5-3-6p5-3h5-6p5-8-888888--|
Bb|--5-3-6p5-3h5-6p5-8-888888--|

Verse 1: Guitar 1 00:20
 F|------------------------------|
 C|------------------------------|
Ab|------------------------------|
Eb|------------------------------|
Bb|------------------------------|
 F|--3/55555-11111/33333-00-000--|
Bb|--3/55555-11111/33333-00-000--|

Guitar 2: 00:20
 C|--------------|
Ab|--------5-----|
Eb|-----------7--|
Bb|--\5----------|
 F|--------------|
Bb|--------------|

Guitar 1: 00:25
 F|--------------------------------|
 C|--------------------------------|
Ab|--------------------------------|
Eb|--------------------------------|
Bb|--------------------------------|
 F|--3/55555-11111/33333-33-1h3----|
Bb|--3/55555-11111/33333-33----h3--|

Guitar 2: 00:25
 C|---------------------------|
Ab|---------10-12-10----------|
Eb|----7-8--------------------|
Bb|--------------------12-10--|
 F|--8------------------------|
Bb|---------------------------|

Guitar 1: 00:31
 F|------------------------------|
 C|------------------------------|
Ab|------------------------------|
Eb|------------------------------|
Bb|------------------------------|
 F|--3/55555-11111/33333-00-000--|
Bb|--3/55555-11111/33333-00-000--|

Guitar 2: 00:31
 C|-----10---------|
Ab|--------10-9----|
Eb|--0----------7--|
Bb|----------------|
 F|----------------|
Bb|----------------|

Guitar 1: 00:36
 F|--------------------------|
 C|--------------------------|
Ab|--------------------------|
Eb|--------------------------|
Bb|--------------------------|
 F|--3/55555-11111/33333-33--|
Bb|--3/55555-11111/33333-33--|

Guitar 2: 00:36
 C|------------------------|
Ab|---------10-12-10-------|
Eb|----7-8-----------------|
Bb|--------------------12--|
 F|--8---------------------|
Bb|------------------------|

Pre-Chorus: Guitar 1 00:41
 F|---------------------------------------------------------------|
 C|---------------------------------------------------------------|
Ab|---------------------------------------------------------------|
Eb|---------------------------------------------------------------|
Bb|-----------------------------5*--------------------------------|
 F|------8-6-5h6p5-----8-6-5h6p5-------8-6-5h6p5-----8-6-5h6xx----|
Bb|--555---6-5h6p5-555---6-5h6p5---555---6-5h6p5-555---6-5h6xx----|

Pre-Chorus: Guitar 2 
 C|--------------------------------------------------------------------|
Ab|------------------------------------------------------------5*------|
Eb|-----------------------5*--5*---------------------------5*----5*----|
Bb|---------5*-5*-------------------------5*--5*-------5*5*--5*----5*--|
 F|--------------------------------------------------------------------|
Bb|--555-----------555-------------555-----------555-------------------|

Chorus: Both Guitars 00:51
 C|---------------------------------------------|
Ab|---------------------------------------------|
Eb|------------------------------3-2------------|
Bb|------7h8p7-7h8-----------5-5-----3-3333333--|
 F|--5-5-----------1-1111111-3-3-----3-3333333--|
Bb|--5-5-----------1-1111111---------3-3333333--|

 C|----------------------------------------|
Ab|----------------------------------------|
Eb|-------------------------3-2------------|
Bb|---------------------5-5-----5-5555555--|
 F|--5-55555--1-1111111-3-3-------3333333--|
Bb|--5-55555--1-1111111--------------------|

Back to verse: Guitars 1 and 2 01:12
 C|-----------------------------------|
Ab|-----------------------------------|
Eb|-----------------------------------|
Bb|--5-3-6p5-3h5-6p5-3-5-3-6p5-3h5-1--|
 F|--5-3-6p5-3h5-6p5-3-5-3-6p5-3h5-1--|
Bb|--5-3-6p5-3h5-6p5-3-5-3-6p5-3h5-1--|

Guitars 1 and 2: 01:17
 C|----------------------------|
Ab|----------------------------|
Eb|----------------------------|
Bb|--5-3-6p5-3h5-6p5-8-888888--|
 F|--5-3-6p5-3h5-6p5-8-888888--|
Bb|--5-3-6p5-3h5-6p5-8-888888--|

Verse 2: Guitar 1 01:22
 F|------------------------------|
 C|------------------------------|
Ab|------------------------------|
Eb|------------------------------|
Bb|------------------------------|
 F|--3/55555-11111/33333-00-000--|
Bb|--3/55555-11111/33333-00-000--|

Guitar 2: 01:22
 C|--------------|
Ab|--------5-----|
Eb|--0--------7--|
Bb|--------------|
 F|--------------|
Bb|--------------|

Guitar 1: 01:27
 F|--------------------------------|
 C|--------------------------------|
Ab|--------------------------------|
Eb|--------------------------------|
Bb|--------------------------------|
 F|--3/55555-11111/33333-33-1h3----|
Bb|--3/55555-11111/33333-33----h3--|

Guitar 2: 01:27
 C|---------------------------|
Ab|---------10-12-10----------|
Eb|----7-8--------------------|
Bb|--------------------12-10--|
 F|--8------------------------|
Bb|---------------------------|

Guitar 1: 01:33
 F|------------------------------|
 C|------------------------------|
Ab|------------------------------|
Eb|------------------------------|
Bb|------------------------------|
 F|--3/55555-11111/33333-00-000--|
Bb|--3/55555-11111/33333-00-000--|

Guitar 2: 01:33
 C|-----10---------|
Ab|--------10-9----|
Eb|--0----------7--|
Bb|----------------|
 F|----------------|
Bb|----------------|

Guitar 1: 01:38
 F|----------------------------|
 C|----------------------------|
Ab|----------------------------|
Eb|----------------------------|
Bb|----------------------------|
 F|--3/55555-11111/33333-3333--|
Bb|--3/55555-11111/33333-3333--|

Guitar 2: 01:38
 C|------------------------|
Ab|---------10-12-10-------|
Eb|----7-8-----------------|
Bb|--------------------12--|
 F|--8---------------------|
Bb|------------------------|

Chorus: Both Guitars 01:43
 C|---------------------------------------------|
Ab|---------------------------------------------|
Eb|------------------------------3-2------------|
Bb|------7h8p7-7h8-----------5-5-----3-3333333--|
 F|--5-5-----------1-1111111-3-3-----3-3333333--|
Bb|--5-5-----------1-1111111---------3-3333333--|

 C|----------------------------------------|
Ab|----------------------------------------|
Eb|-------------------------3-2------------|
Bb|---------------------5-5-----5-5555555--|
 F|--5-55555--1-1111111-3-3-------3333333--|
Bb|--5-55555--1-1111111--------------------|

Bridge: Guitar 1 02:04
 F|--------------------------|
 C|--------------------------|
Ab|--------------------------|
Eb|--------------------------|
Bb|--------------------------|
 F|--------------------------|
Bb|--6--5--3--5--6p5-5-3-00--|
                         pm
02:09
 F|------------------------------------|
 C|------------------------------------|
Ab|------------------------------------|
Eb|------------------------------------|
Bb|------------------------------------|
 F|-----------------------10-10-10-10--|
Bb|--6--5--3--5--6p5-5-3--10-10-10-10--|

Both guitars: 02:14
 C|------------------------------|
Ab|------------------------------|
Eb|------------------------------|
Bb|------------------------------|
 F|--6--5--3--5--6p5-5-3-00-xxx--|
Bb|--6--5--3--5--6p5-5-3-00-xxx--|x2

Solo: Guitar 1 02:26
 F|----------------------------------------------------|
 C|-------------5--6---8--10--13-----------------------|
Ab|--9b-9b9b----7b-8b-10b-12b-15b--14h16p1414----------|
Eb|----------12~-----------------------------17-15h17--|
Bb|----------------------------------------------------|
 F|----------------------------------------------------|
Bb|----------------------------------------------------|
                 ^-full step bends (Ab string only)

02:34
 F|------------------------------------------------|
 C|------------------------------------------------|
Ab|------5----9h10p9--99h10p9--99h10p9--99h10p9----|
Eb|----5------------12-------12-------12-------12--|
Bb|--3---------------------------------------------|
 F|------------------------------------------------|
Bb|------------------------------------------------|

02:38
 F|--------------------------------------------------|
 C|--------------------------------------------------|
Ab|--10h12p10--1010h12p10--1010h12p10--1010h12p10----|
Eb|----------12----------12----------12----------12--|
Bb|--------------------------------------------------|
 F|--------------------------------------------------|
Bb|--------------------------------------------------|

02:41
 F|--------------------------------------------|
 C|--------------------------13--------13--15--|
Ab|--12h14p12--1212h14p12--12--14p12-12--14----|
Eb|----------15----------15--------------------|
Bb|--------------------------------------------|
 F|--------------------------------------------|
Bb|--------------------------------------------|

Guitar during solo: Guitar 2 02:25
 C|---------------------------------------------|
Ab|---------------------------------------------|
Eb|------------------------------3-2------------|
Bb|------7h8p7-7h8-----------5-5-----3-3333333--|
 F|--5-5-----------1-1111111-3-3-----3-3333333--|
Bb|--5-5-----------1-1111111---------3-3333333--|

 C|--------------------------------|
Ab|--------------------------------|
Eb|-------------------------3-2----|
Bb|---------------------5-5-----5--|
 F|--5-55555--1-1111111-3-3--------|
Bb|--5-55555--1-1111111------------|

Chorus: Both Guitars 02:46/03:07
 C|---------------------------------------------|
Ab|---------------------------------------------|
Eb|------------------------------3-2------------|
Bb|------7h8p7-7h8-----------5-5-----3-3333333--|
 F|--5-5-----------1-1111111-3-3-----3-3333333--|
Bb|--5-5-----------1-1111111---------3-3333333--|

 C|----------------------------------------|
Ab|----------------------------------------|
Eb|-------------------------3-2------------|
Bb|---------------------5-5-----5-5555555--|
 F|--5-55555--1-1111111-3-3-------3333333--|
Bb|--5-55555--1-1111111--------------------|play 2 times

Outro: both Guitars 03:27
 C|-----------------------------------|
Ab|-----------------------------------|
Eb|-----------------------------------|
Bb|--5-3-6p5-3h5-6p5-3-5-3-6p5-3h5-1--|
 F|--5-3-6p5-3h5-6p5-3-5-3-6p5-3h5-1--|
Bb|--5-3-6p5-3h5-6p5-3-5-3-6p5-3h5-1--|

Both Guitars: 03:33
 C|----------------------------|
Ab|----------------------------|
Eb|----------------------------|
Bb|--5-3-6p5-3h5-6p5-8-888888--|
 F|--5-3-6p5-3h5-6p5-8-888888--|
Bb|--5-3-6p5-3h5-6p5-8-888888--|

Guitar 1: 03:37 (bend 1 whole step)
 F|-------------------------------------|
 C|-------------------------------------|
Ab|-------17b-17b17b17b-17b17b-17b--17--|
Eb|-------------------------------------|
Bb|--\----------------------------------|
 F|--\----------------------------------|
Bb|--\----------------------------------|
     ^---Pick Slide

Guitar 2: 03:38
 C|-----------------------------------|
Ab|-----------------------------------|
Eb|-----------------------------------|
Bb|--5-3-6p5-3h5-6p5-3-5-3-6p5-3h5-1--|
 F|--5-3-6p5-3h5-6p5-3-5-3-6p5-3h5-1--|
Bb|--5-3-6p5-3h5-6p5-3-5-3-6p5-3h5-1--|

Guitar 2: 03:43
 C|---------------------|
Ab|---------------------|
Eb|---------------------|
Bb|--5-3-6p5-3h5-6p5-8--|
 F|--5-3-6p5-3h5-6p5-8--|
Bb|--5-3-6p5-3h5-6p5-8--|

Finished!
Tap to rate this tab
# A B C D E F G H I J K L M N O P Q R S T U V W X Y Z