Song name
# A B C D E F G H I J K L M N O P Q R S T U V W X Y Z

Decyfer Down - Ill Breathe For You tab

Decyfer Down
I'll Breathe For You
Tabbed by U B the band
Tuning Bb F Bb Eb Ab C

Intro: Guitar 1 (Chris) 00:00
 C|------------------------------------------------|
Ab|------------------------------------------------|
Eb|------------------------------------------------|
Bb|------------------------------------------------|
 F|--3--------3----------------3--------3----------|
Bb|----2-2-0----2-2-0-2h3-2p0----2-2-0----2-2-0-5--|x2

Guitar 2: 00:05 (Brandon) enters with effects on the second time.
 C|------------------------------------------------|
Ab|------------------------------------------------|
Eb|------------------------------------------------|
Bb|------------------------------------------------|
 F|--3--------3----------------3--------3----------|
Bb|----2-2-0----2-2-0-2h3-2p0----2-2-0----2-2-0-5--|

Guitars 1 and 2: 00:11
 C|------------------------------------------------|
Ab|------------------------------------------------|
Eb|------------------------------------------------|
Bb|--5--------5----------------5--------5----------|
 F|--3-2-2-0--3-2-2-0-2h3-2p0--3-2-2-0--3-2-2-0-5--|
Bb|----2-2-0----2-2-0-2h3-2p0----2-2-0----2-2-0-5--|

Both guitars: 00:16 (guitar 2 with effects)
 C|------------------------------------------------|
Ab|------------------------------------------------|
Eb|------------------------------------------------|
Bb|--5--------5----------------5--------5----------|
 F|--3-2-2-0--3-2-2-0-2h3-2p0--3-2-2-0--3-2-2-0-5--|
Bb|----2-2-0----2-2-0-2h3-2p0----2-2-0----2-2-0-5--|

Just a teaser of what is to come.
Tap to rate this tab
# A B C D E F G H I J K L M N O P Q R S T U V W X Y Z