Song name
# A B C D E F G H I J K L M N O P Q R S T U V W X Y Z

Dee Dee Ramone - I Am Seeing Ufos tab

I AM SEEING UFOs
DEE DEE RAMONE
ZONKED!


I. INTRO / CHORUS


e-------------------------------|
b-------------------------------|
g-------------------------------|
d-2--2-2-2-2-2-2-7--7-7-7-7-7-7-| (x2)
a-2--2-2-2-2-2-2-5--5-5-5-5-5-5-|
e-0--0-0-0-0-0-0-5--5-5-5-5-5-5-|

e-------------------------------|
b-------------------------------|
g-------------------------------|
d-4--4-4-4-4-4-4-9--9-9-9-9-9-9-| (x2)
a-4--4-4-4-4-4-4-9--9-9-9-9-9-9-|
e-2--2-2-2-2-2-2-7--7-7-7-7-7-7-|

II. VERSE

e-----------------------------------------------------------------|
b-----------------------------------------------------------------|
g-----------------------------------------------------------------|
d-2-2-2-2-2-2-2-2-4-4-4-4-4-4-4-4-7-7-7-7-7-7-7-7-7-7-7-7-7-7-7-7-| (x4)
a-2-2-2-2-2-2-2-2-2-2-2-2-2-2-2-2-7-7-7-7-7-7-7-7-7-7-7-7-7-7-7-7-|
e-0-0-0-0-0-0-0-0-2-2-2-2-2-2-2-2-5-5-5-5-5-5-5-5-5-5-5-5-5-5-5-5-|

  **************************(PALM MUTE)***************************

III. BRIDGE

e---------------------------------------------------------------------|
b---------------------------------------------------------------------|
g---------------------------------------------------------------------|
d-4--4-4-4-4-4-4-4-4--4-4-4-4-4-4-4-4-7--7-7-7-7-7-7-7-2--2-2-2-2-2-2-|
a-4--4-4-4-4-4-4-4-4--4-4-4-4-4-4-4-4-7--7-7-7-7-7-7-7-2--2-2-2-2-2-2-|
e-2--2-2-2-2-2-2-2-2--2-2-2-2-2-2-2-2-5--5-5-5-5-5-5-5-0--0-0-0-0-0-0-|

e---------------------------------------------------------------------|
b---------------------------------------------------------------------|
g---------------------------------------------------------------------|
d-4--4-4-4-4-4-4-4--4-4-4-4-4-4-4-9--9-9-9-9-9-9-9--9-9-9-9-9-9-------|
a-2--2-2-2-2-2-2-2--2-2-2-2-2-2-2-7--7-7-7-7-7-7-7--7-7-7-7-7-7-------|
e-2--2-2-2-2-2-2-2--2-2-2-2-2-2-2-7--7-7-7-7-7-7-7--7-7-7-7-7-7-------|

IV. CHORUS (PLAY I)

ENJOY!

RIP DEE DEE RAMONE (1951-2002)


FOR QUESTIONS, COMMENTS, INSULTS, MESSAGE ME:

threechordriot@yahoo.com
Tap to rate this tab
# A B C D E F G H I J K L M N O P Q R S T U V W X Y Z