Song name
# A B C D E F G H I J K L M N O P Q R S T U V W X Y Z

Dee Dee Ramone - Twist And Shout tab

Twist and Shout by Youth Gone Mad feauturing Dee Dee Ramone.

At least I'm sure about the verse and bridge. I think they're right.
The solo is at least 75% right

Intro/Verse:
   D5 G5 A5
e|-5--3--5-|
B|-5--3--5-|
G|-7--3--5-|
D|-7--5--7-|
A|-5--5--7-|
E|-5--3--5-|

Bridge:
   A5
e|-0----5
B|-0----5
G|-2-or-5
D|-2----7
A|-0----7
E|-x----5

Solo:
e|---------------------|
B|---------------------|
G|--------4--7--7-10-9-|
D|-7--7-5-5--7--7-10-9-|
A|-7--7------7--7-10-9-|
E|---------------------|
Tap to rate this tab
# A B C D E F G H I J K L M N O P Q R S T U V W X Y Z